  0
SECTION
  2
HEADER
  9
$ACADVER
  1
AC1015
  9
$ACADMAINTVER
 70
     6
  9
$DWGCODEPAGE
  3
ANSI_1254
  9
$INSBASE
 10
0.0
 20
0.0
 30
0.0
  9
$EXTMIN
 10
0.0
 20
0.0
 30
0.0
  9
$EXTMAX
 10
279.4
 20
215.9
 30
0.0
  9
$LIMMIN
 10
0.0
 20
0.0
  9
$LIMMAX
 10
279.4
 20
215.9
  9
$ORTHOMODE
 70
     0
  9
$REGENMODE
 70
     1
  9
$FILLMODE
 70
     1
  9
$QTEXTMODE
 70
     0
  9
$MIRRTEXT
 70
     1
  9
$LTSCALE
 40
1.0
  9
$ATTMODE
 70
     1
  9
$TEXTSIZE
 40
3.5
  9
$TRACEWID
 40
1.0
  9
$TEXTSTYLE
  7
Standard
  9
$CLAYER
  8
0
  9
$CELTYPE
  6
ByLayer
  9
$CECOLOR
 62
   256
  9
$CELTSCALE
 40
1.0
  9
$DISPSILH
 70
     0
  9
$DIMSCALE
 40
1.0
  9
$DIMASZ
 40
3.5
  9
$DIMEXO
 40
1.0
  9
$DIMDLI
 40
3.75
  9
$DIMRND
 40
0.0
  9
$DIMDLE
 40
0.0
  9
$DIMEXE
 40
1.0
  9
$DIMTP
 40
0.0
  9
$DIMTM
 40
0.0
  9
$DIMTXT
 40
3.5
  9
$DIMCEN
 40
2.5
  9
$DIMTSZ
 40
0.0
  9
$DIMTOL
 70
     0
  9
$DIMLIM
 70
     0
  9
$DIMTIH
 70
     1
  9
$DIMTOH
 70
     1
  9
$DIMSE1
 70
     0
  9
$DIMSE2
 70
     0
  9
$DIMTAD
 70
     1
  9
$DIMZIN
 70
     0
  9
$DIMBLK
  1

  9
$DIMASO
 70
     1
  9
$DIMSHO
 70
     1
  9
$DIMPOST
  1

  9
$DIMAPOST
  1

  9
$DIMALT
 70
     0
  9
$DIMALTD
 70
     3
  9
$DIMALTF
 40
0.0393700787
  9
$DIMLFAC
 40
1.0
  9
$DIMTOFL
 70
     1
  9
$DIMTVP
 40
0.0
  9
$DIMTIX
 70
     0
  9
$DIMSOXD
 70
     0
  9
$DIMSAH
 70
     0
  9
$DIMBLK1
  1

  9
$DIMBLK2
  1

  9
$DIMSTYLE
  2
ISO-25
  9
$DIMCLRD
 70
     0
  9
$DIMCLRE
 70
     0
  9
$DIMCLRT
 70
     0
  9
$DIMTFAC
 40
1.0
  9
$DIMGAP
 40
1.524
  9
$DIMJUST
 70
     0
  9
$DIMSD1
 70
     0
  9
$DIMSD2
 70
     0
  9
$DIMTOLJ
 70
     0
  9
$DIMTZIN
 70
     0
  9
$DIMALTZ
 70
     0
  9
$DIMALTTZ
 70
     0
  9
$DIMUPT
 70
     0
  9
$DIMDEC
 70
     2
  9
$DIMTDEC
 70
     2
  9
$DIMALTU
 70
     2
  9
$DIMALTTD
 70
     3
  9
$DIMTXSTY
  7
Standard
  9
$DIMAUNIT
 70
     0
  9
$DIMADEC
 70
     2
  9
$DIMALTRND
 40
0.0
  9
$DIMAZIN
 70
     0
  9
$DIMDSEP
 70
    44
  9
$DIMATFIT
 70
     3
  9
$DIMFRAC
 70
     0
  9
$DIMLDRBLK
  1

  9
$DIMLUNIT
 70
     2
  9
$DIMLWD
 70
    -2
  9
$DIMLWE
 70
    -2
  9
$DIMTMOVE
 70
     0
  9
$LUNITS
 70
     2
  9
$LUPREC
 70
     2
  9
$SKETCHINC
 40
1.0
  9
$FILLETRAD
 40
10.0
  9
$AUNITS
 70
     0
  9
$AUPREC
 70
     2
  9
$MENU
  1
.
  9
$ELEVATION
 40
0.0
  9
$PELEVATION
 40
0.0
  9
$THICKNESS
 40
0.0
  9
$LIMCHECK
 70
     0
  9
$CHAMFERA
 40
0.0
  9
$CHAMFERB
 40
0.0
  9
$CHAMFERC
 40
0.0
  9
$CHAMFERD
 40
0.0
  9
$SKPOLY
 70
     0
  9
$TDCREATE
 40
2460616.666931019
  9
$TDUCREATE
 40
2460616.541931019
  9
$TDUPDATE
 40
2460616.666931204
  9
$TDUUPDATE
 40
2460616.541931204
  9
$TDINDWG
 40
0.0000000116
  9
$TDUSRTIMER
 40
0.0000000116
  9
$USRTIMER
 70
     1
  9
$ANGBASE
 50
0.0
  9
$ANGDIR
 70
     0
  9
$PDMODE
 70
     0
  9
$PDSIZE
 40
-1.0
  9
$PLINEWID
 40
0.0
  9
$SPLFRAME
 70
     0
  9
$SPLINETYPE
 70
     6
  9
$SPLINESEGS
 70
     8
  9
$HANDSEED
  5
10F
  9
$SURFTAB1
 70
     6
  9
$SURFTAB2
 70
     6
  9
$SURFTYPE
 70
     6
  9
$SURFU
 70
     6
  9
$SURFV
 70
     6
  9
$UCSBASE
  2

  9
$UCSNAME
  2

  9
$UCSORG
 10
0.0
 20
0.0
 30
0.0
  9
$UCSXDIR
 10
1.0
 20
0.0
 30
0.0
  9
$UCSYDIR
 10
0.0
 20
1.0
 30
0.0
  9
$UCSORTHOREF
  2

  9
$UCSORTHOVIEW
 70
     0
  9
$UCSORGTOP
 10
0.0
 20
0.0
 30
0.0
  9
$UCSORGBOTTOM
 10
0.0
 20
0.0
 30
0.0
  9
$UCSORGLEFT
 10
0.0
 20
0.0
 30
0.0
  9
$UCSORGRIGHT
 10
0.0
 20
0.0
 30
0.0
  9
$UCSORGFRONT
 10
0.0
 20
0.0
 30
0.0
  9
$UCSORGBACK
 10
0.0
 20
0.0
 30
0.0
  9
$PUCSBASE
  2

  9
$PUCSNAME
  2

  9
$PUCSORG
 10
0.0
 20
0.0
 30
0.0
  9
$PUCSXDIR
 10
1.0
 20
0.0
 30
0.0
  9
$PUCSYDIR
 10
0.0
 20
1.0
 30
0.0
  9
$PUCSORTHOREF
  2

  9
$PUCSORTHOVIEW
 70
     0
  9
$PUCSORGTOP
 10
0.0
 20
0.0
 30
0.0
  9
$PUCSORGBOTTOM
 10
0.0
 20
0.0
 30
0.0
  9
$PUCSORGLEFT
 10
0.0
 20
0.0
 30
0.0
  9
$PUCSORGRIGHT
 10
0.0
 20
0.0
 30
0.0
  9
$PUCSORGFRONT
 10
0.0
 20
0.0
 30
0.0
  9
$PUCSORGBACK
 10
0.0
 20
0.0
 30
0.0
  9
$USERI1
 70
     0
  9
$USERI2
 70
     0
  9
$USERI3
 70
     0
  9
$USERI4
 70
     0
  9
$USERI5
 70
     0
  9
$USERR1
 40
0.0
  9
$USERR2
 40
0.0
  9
$USERR3
 40
0.0
  9
$USERR4
 40
0.0
  9
$USERR5
 40
0.0
  9
$WORLDVIEW
 70
     1
  9
$SHADEDGE
 70
     3
  9
$SHADEDIF
 70
    70
  9
$TILEMODE
 70
     1
  9
$MAXACTVP
 70
    64
  9
$PINSBASE
 10
0.0
 20
0.0
 30
0.0
  9
$PLIMCHECK
 70
     0
  9
$PEXTMIN
 10
1.0000000000E+20
 20
1.0000000000E+20
 30
1.0000000000E+20
  9
$PEXTMAX
 10
-1.0000000000E+20
 20
-1.0000000000E+20
 30
-1.0000000000E+20
  9
$PLIMMIN
 10
0.0
 20
0.0
  9
$PLIMMAX
 10
420.0
 20
297.0
  9
$UNITMODE
 70
     0
  9
$VISRETAIN
 70
     1
  9
$PLINEGEN
 70
     0
  9
$PSLTSCALE
 70
     1
  9
$TREEDEPTH
 70
  3020
  9
$CMLSTYLE
  2
Standard
  9
$CMLJUST
 70
     0
  9
$CMLSCALE
 40
20.0
  9
$PROXYGRAPHICS
 70
     1
  9
$MEASUREMENT
 70
     1
  9
$CELWEIGHT
370
    -1
  9
$ENDCAPS
280
     0
  9
$JOINSTYLE
280
     0
  9
$LWDISPLAY
290
     1
  9
$INSUNITS
 70
     4
  9
$HYPERLINKBASE
  1

  9
$STYLESHEET
  1

  9
$XEDIT
290
     1
  9
$CEPSNTYPE
380
     0
  9
$PSTYLEMODE
290
     1
  9
$FINGERPRINTGUID
  2
{e6832f2a-2cea-4c79-b732-5edd0296f370}
  9
$VERSIONGUID
  2
{FAEB1C32-E019-11D5-929B-00C0DF256EC4}
  9
$EXTNAMES
290
     1
  9
$PSVPSCALE
 40
0.0
  9
$OLESTARTUP
290
     0
  0
ENDSEC
  0
SECTION
  2
CLASSES
  0
CLASS
  1
ACDBDICTIONARYWDFLT
  2
AcDbDictionaryWithDefault
  3
ObjectDBX Classes
 90
        0
280
     0
281
     0
  0
CLASS
  1
VISUALSTYLE
  2
AcDbVisualStyle
  3
ObjectDBX Classes
 90
     4095
280
     0
281
     0
  0
CLASS
  1
MATERIAL
  2
AcDbMaterial
  3
ObjectDBX Classes
 90
     1153
280
     0
281
     0
  0
CLASS
  1
SCALE
  2
AcDbScale
  3
ObjectDBX Classes
 90
     1153
280
     0
281
     0
  0
CLASS
  1
TABLESTYLE
  2
AcDbTableStyle
  3
ObjectDBX Classes
 90
     4095
280
     0
281
     0
  0
CLASS
  1
MLEADERSTYLE
  2
AcDbMLeaderStyle
  3
ACDB_MLEADERSTYLE_CLASS
 90
     4095
280
     0
281
     0
  0
CLASS
  1
SUN
  2
AcDbSun
  3
SCENEOE
 90
     1153
280
     0
281
     0
  0
CLASS
  1
ACDBPLACEHOLDER
  2
AcDbPlaceHolder
  3
ObjectDBX Classes
 90
        0
280
     0
281
     0
  0
CLASS
  1
LAYOUT
  2
AcDbLayout
  3
ObjectDBX Classes
 90
        0
280
     0
281
     0
  0
ENDSEC
  0
SECTION
  2
TABLES
  0
TABLE
  2
VPORT
  5
8
330
0
100
AcDbSymbolTable
 70
     1
  0
VPORT
  5
29
330
8
100
AcDbSymbolTableRecord
100
AcDbViewportTableRecord
  2
*Active
 70
     0
 10
0.0
 20
0.0
 11
1.0
 21
1.0
 12
139.7
 22
107.95
 13
0.0
 23
0.0
 14
10.0
 24
10.0
 15
10.0
 25
10.0
 16
0.0
 26
0.0
 36
1.0
 17
0.0
 27
0.0
 37
0.0
 40
215.9
 41
1.2941176471
 42
50.0
 43
0.0
 44
0.0
 50
0.0
 51
0.0
 71
     0
 72
  2000
 73
     1
 74
     3
 75
     0
 76
     0
 77
     0
 78
     0
281
     0
 65
     1
110
0.0
120
0.0
130
0.0
111
1.0
121
0.0
131
0.0
112
0.0
122
1.0
132
0.0
 79
     0
146
0.0
  0
ENDTAB
  0
TABLE
  2
LTYPE
  5
5
330
0
100
AcDbSymbolTable
 70
     6
  0
LTYPE
  5
14
330
5
100
AcDbSymbolTableRecord
100
AcDbLinetypeTableRecord
  2
ByBlock
 70
     0
  3

 72
    65
 73
     0
 40
0.0
  0
LTYPE
  5
15
330
5
100
AcDbSymbolTableRecord
100
AcDbLinetypeTableRecord
  2
ByLayer
 70
     0
  3

 72
    65
 73
     0
 40
0.0
  0
LTYPE
  5
16
330
5
100
AcDbSymbolTableRecord
100
AcDbLinetypeTableRecord
  2
Continuous
 70
     0
  3
Solid line
 72
    65
 73
     0
 40
0.0
  0
LTYPE
  5
6E
330
5
100
AcDbSymbolTableRecord
100
AcDbLinetypeTableRecord
  2
HIDDEN
 70
     0
  3
Hidden __ __ __ __ __ __ __ __ __ __ __ __ __ __
 72
    65
 73
     2
 40
1.905
 49
1.27
 74
     0
 49
-0.635
 74
     0
  0
LTYPE
  5
6F
330
5
100
AcDbSymbolTableRecord
100
AcDbLinetypeTableRecord
  2
PHANTOM
 70
     0
  3
Phantom ______  __  __  ______  __  __  ______
 72
    65
 73
     6
 40
12.7
 49
6.35
 74
     0
 49
-1.27
 74
     0
 49
1.27
 74
     0
 49
-1.27
 74
     0
 49
1.27
 74
     0
 49
-1.27
 74
     0
  0
LTYPE
  5
70
330
5
100
AcDbSymbolTableRecord
100
AcDbLinetypeTableRecord
  2
CENTER
 70
     0
  3
Center ____ _ ____ _ ____ _ ____ _ ____ _ ____
 72
    65
 73
     4
 40
10.16
 49
6.35
 74
     0
 49
-1.27
 74
     0
 49
1.27
 74
     0
 49
-1.27
 74
     0
  0
LTYPE
  5
71
330
5
100
AcDbSymbolTableRecord
100
AcDbLinetypeTableRecord
  2
CENTERX2
 70
     0
  3
Center (2x) ________  __  ________  __  _____
 72
    65
 73
     4
 40
20.32
 49
12.7
 74
     0
 49
-2.54
 74
     0
 49
2.54
 74
     0
 49
-2.54
 74
     0
  0
LTYPE
  5
72
330
5
100
AcDbSymbolTableRecord
100
AcDbLinetypeTableRecord
  2
DOT2
 70
     0
  3
Dot (.5x) ........................................
 72
    65
 73
     2
 40
0.635
 49
0.0
 74
     0
 49
-0.635
 74
     0
  0
ENDTAB
  0
TABLE
  2
LAYER
  5
2
330
0
100
AcDbSymbolTable
 70
    17
  0
LAYER
  5
10
330
2
100
AcDbSymbolTableRecord
100
AcDbLayerTableRecord
  2
0
 70
     0
 62
     7
  6
Continuous
370
    -3
390
F
  0
LAYER
  5
73
330
2
100
AcDbSymbolTableRecord
100
AcDbLayerTableRecord
  2
FORMAT
 70
     0
 62
     7
  6
Continuous
370
    -3
390
F
  0
LAYER
  5
74
330
2
100
AcDbSymbolTableRecord
100
AcDbLayerTableRecord
  2
YARDIMCI_GEOMETRI
 70
     0
 62
    -6
  6
Continuous
290
     0
370
    -3
390
F
  0
LAYER
  5
75
330
2
100
AcDbSymbolTableRecord
100
AcDbLayerTableRecord
  2
SAYFA_CERCEVESI
 70
     0
 62
     7
  6
Continuous
370
    25
390
F
  0
LAYER
  5
76
330
2
100
AcDbSymbolTableRecord
100
AcDbLayerTableRecord
  2
ANTET
 70
     0
 62
     7
  6
Continuous
370
    -3
390
F
  0
LAYER
  5
77
330
2
100
AcDbSymbolTableRecord
100
AcDbLayerTableRecord
  2
OLCU
 70
     0
 62
   150
  6
Continuous
370
    -3
390
F
  0
LAYER
  5
78
330
2
100
AcDbSymbolTableRecord
100
AcDbLayerTableRecord
  2
METIN
 70
     0
 62
    96
  6
Continuous
370
    -3
390
F
  0
LAYER
  5
79
330
2
100
AcDbSymbolTableRecord
100
AcDbLayerTableRecord
  2
BALON
 70
     0
 62
     5
  6
Continuous
370
    -3
390
F
  0
LAYER
  5
7A
330
2
100
AcDbSymbolTableRecord
100
AcDbLayerTableRecord
  2
VURGU
 70
     0
 62
     7
  6
Continuous
370
    -3
390
F
  0
LAYER
  5
7B
330
2
100
AcDbSymbolTableRecord
100
AcDbLayerTableRecord
  2
SILIK
 70
     0
 62
     7
  6
Continuous
370
    -3
390
F
  0
LAYER
  5
7C
330
2
100
AcDbSymbolTableRecord
100
AcDbLayerTableRecord
  2
MODEL
 70
     0
 62
     7
  6
Continuous
370
    -3
390
F
  0
LAYER
  5
7D
330
2
100
AcDbSymbolTableRecord
100
AcDbLayerTableRecord
  2
DETAYLANDıRMA
 70
     0
 62
   190
  6
Continuous
370
    -3
390
F
  0
LAYER
  5
7E
330
2
100
AcDbSymbolTableRecord
100
AcDbLayerTableRecord
  2
TOLERANS
 70
     0
 62
   230
  6
Continuous
370
    -3
390
F
  0
LAYER
  5
7F
330
2
100
AcDbSymbolTableRecord
100
AcDbLayerTableRecord
  2
MERKEZ_CIZGILERI
 70
     0
 62
    30
  6
Continuous
370
    -3
390
F
  0
LAYER
  5
80
330
2
100
AcDbSymbolTableRecord
100
AcDbLayerTableRecord
  2
KESIT-DETAY_CIZGILERI
 70
     0
 62
     7
  6
Continuous
370
    -3
390
F
  0
LAYER
  5
81
330
2
100
AcDbSymbolTableRecord
100
AcDbLayerTableRecord
  2
\U+041E\U+0421\U+0415\U+0412\U+042B\U+0415
 70
     0
 62
     7
  6
Continuous
370
    -3
390
F
  0
LAYER
  5
82
330
2
100
AcDbSymbolTableRecord
100
AcDbLayerTableRecord
  2
\U+0412\U+041E\U+0414\U+042F\U+041D\U+042B\U+0415_\U+0417\U+041D\U+0410\U+041A\U+0418
 70
     0
 62
    11
  6
Continuous
370
    -3
390
F
  0
ENDTAB
  0
TABLE
  2
STYLE
  5
3
330
0
100
AcDbSymbolTable
 70
     1
  0
STYLE
  5
11
330
3
100
AcDbSymbolTableRecord
100
AcDbTextStyleTableRecord
  2
Standard
 70
     0
 40
0.0
 41
1.0
 50
0.0
 71
     0
 42
3.5
  3
txt
  4

  0
ENDTAB
  0
TABLE
  2
VIEW
  5
6
330
0
100
AcDbSymbolTable
 70
     0
  0
ENDTAB
  0
TABLE
  2
UCS
  5
7
330
0
100
AcDbSymbolTable
 70
     0
  0
ENDTAB
  0
TABLE
  2
APPID
  5
9
330
0
100
AcDbSymbolTable
 70
     1
  0
APPID
  5
12
330
9
100
AcDbSymbolTableRecord
100
AcDbRegAppTableRecord
  2
ACAD
 70
     0
  0
ENDTAB
  0
TABLE
  2
DIMSTYLE
  5
A
330
0
100
AcDbSymbolTable
 70
     1
100
AcDbDimStyleTable
  0
DIMSTYLE
105
27
330
A
100
AcDbSymbolTableRecord
100
AcDbDimStyleTableRecord
  2
ISO-25
 70
     0
 41
2.5
 42
0.625
 43
3.75
 44
1.25
 73
     0
 74
     0
 77
     1
 78
     8
140
2.5
141
2.5
143
0.0393700787
147
0.625
171
     3
172
     1
178
     0
271
     2
272
     2
274
     3
278
    44
283
     0
284
     8
340
11
  0
ENDTAB
  0
TABLE
  2
BLOCK_RECORD
  5
1
330
0
100
AcDbSymbolTable
 70
     4
  0
BLOCK_RECORD
  5
1F
330
1
100
AcDbSymbolTableRecord
100
AcDbBlockTableRecord
  2
*Model_Space
340
22
  0
BLOCK_RECORD
  5
1B
330
1
100
AcDbSymbolTableRecord
100
AcDbBlockTableRecord
  2
*Paper_Space
340
1E
  0
BLOCK_RECORD
  5
23
330
1
100
AcDbSymbolTableRecord
100
AcDbBlockTableRecord
  2
*Paper_Space0
340
26
  0
BLOCK_RECORD
  5
8C
330
1
100
AcDbSymbolTableRecord
100
AcDbBlockTableRecord
  2
SW_CENTERMARKSYMBOL_0
340
0
102
{BLKREFS
331
97
102
}
  0
BLOCK_RECORD
  5
DE
330
1
100
AcDbSymbolTableRecord
100
AcDbBlockTableRecord
  2
SW_CENTERMARKSYMBOL_1
340
0
102
{BLKREFS
331
E9
102
}
  0
BLOCK_RECORD
  5
EA
330
1
100
AcDbSymbolTableRecord
100
AcDbBlockTableRecord
  2
SW_CENTERMARKSYMBOL_2
340
0
102
{BLKREFS
331
F5
102
}
  0
ENDTAB
  0
ENDSEC
  0
SECTION
  2
BLOCKS
  0
BLOCK
  5
20
330
1F
100
AcDbEntity
  8
0
100
AcDbBlockBegin
  2
*Model_Space
 70
     0
 10
0.0
 20
0.0
 30
0.0
  3
*Model_Space
  1

  0
ENDBLK
  5
21
330
1F
100
AcDbEntity
  8
0
100
AcDbBlockEnd
  0
BLOCK
  5
1C
330
1B
100
AcDbEntity
 67
     1
  8
0
100
AcDbBlockBegin
  2
*Paper_Space
 70
     0
 10
0.0
 20
0.0
 30
0.0
  3
*Paper_Space
  1

  0
ENDBLK
  5
1D
330
1B
100
AcDbEntity
 67
     1
  8
0
100
AcDbBlockEnd
  0
BLOCK
  5
24
330
23
100
AcDbEntity
  8
0
100
AcDbBlockBegin
  2
*Paper_Space0
 70
     0
 10
0.0
 20
0.0
 30
0.0
  3
*Paper_Space0
  1

  0
ENDBLK
  5
25
330
23
100
AcDbEntity
  8
0
100
AcDbBlockEnd
  0
BLOCK
  5
8D
330
8C
100
AcDbEntity
  8
0
100
AcDbBlockBegin
  2
SW_CENTERMARKSYMBOL_0
 70
     0
 10
0.0
 20
0.0
 30
0.0
  3
SW_CENTERMARKSYMBOL_0
  1

  0
LINE
  5
8F
330
8C
100
AcDbEntity
  8
FORMAT
 62
     0
100
AcDbLine
 10
0.0
 20
0.0
 30
0.0
 11
0.0
 21
2.5
 31
0.0
  0
LINE
  5
90
330
8C
100
AcDbEntity
  8
FORMAT
 62
     0
100
AcDbLine
 10
0.0
 20
0.0
 30
0.0
 11
-2.5
 21
0.0
 31
0.0
  0
LINE
  5
91
330
8C
100
AcDbEntity
  8
FORMAT
 62
     0
100
AcDbLine
 10
0.0
 20
0.0
 30
0.0
 11
0.0
 21
-2.5
 31
0.0
  0
LINE
  5
92
330
8C
100
AcDbEntity
  8
FORMAT
 62
     0
100
AcDbLine
 10
0.0
 20
0.0
 30
0.0
 11
2.5
 21
0.0
 31
0.0
  0
LINE
  5
93
330
8C
100
AcDbEntity
  8
FORMAT
 62
     0
100
AcDbLine
 10
0.0
 20
5.0
 30
0.0
 11
0.0
 21
180.7
 31
0.0
  0
LINE
  5
94
330
8C
100
AcDbEntity
  8
FORMAT
 62
     0
100
AcDbLine
 10
-5.0
 20
0.0
 30
0.0
 11
-180.7
 21
0.0
 31
0.0
  0
LINE
  5
95
330
8C
100
AcDbEntity
  8
FORMAT
 62
     0
100
AcDbLine
 10
0.0
 20
-5.0
 30
0.0
 11
0.0
 21
-180.7
 31
0.0
  0
LINE
  5
96
330
8C
100
AcDbEntity
  8
FORMAT
 62
     0
100
AcDbLine
 10
5.0
 20
0.0
 30
0.0
 11
180.7
 21
0.0
 31
0.0
  0
ENDBLK
  5
8E
330
8C
100
AcDbEntity
  8
0
100
AcDbBlockEnd
  0
BLOCK
  5
DF
330
DE
100
AcDbEntity
  8
0
100
AcDbBlockBegin
  2
SW_CENTERMARKSYMBOL_1
 70
     0
 10
0.0
 20
0.0
 30
0.0
  3
SW_CENTERMARKSYMBOL_1
  1

  0
LINE
  5
E1
330
DE
100
AcDbEntity
  8
FORMAT
 62
     0
100
AcDbLine
 10
0.0
 20
0.0
 30
0.0
 11
0.0
 21
2.5
 31
0.0
  0
LINE
  5
E2
330
DE
100
AcDbEntity
  8
FORMAT
 62
     0
100
AcDbLine
 10
0.0
 20
0.0
 30
0.0
 11
-2.5
 21
0.0
 31
0.0
  0
LINE
  5
E3
330
DE
100
AcDbEntity
  8
FORMAT
 62
     0
100
AcDbLine
 10
0.0
 20
0.0
 30
0.0
 11
0.0
 21
-2.5
 31
0.0
  0
LINE
  5
E4
330
DE
100
AcDbEntity
  8
FORMAT
 62
     0
100
AcDbLine
 10
0.0
 20
0.0
 30
0.0
 11
2.5
 21
0.0
 31
0.0
  0
LINE
  5
E5
330
DE
100
AcDbEntity
  8
FORMAT
 62
     0
100
AcDbLine
 10
0.0
 20
5.0
 30
0.0
 11
0.0
 21
9.5
 31
0.0
  0
LINE
  5
E6
330
DE
100
AcDbEntity
  8
FORMAT
 62
     0
100
AcDbLine
 10
-5.0
 20
0.0
 30
0.0
 11
-9.5
 21
0.0
 31
0.0
  0
LINE
  5
E7
330
DE
100
AcDbEntity
  8
FORMAT
 62
     0
100
AcDbLine
 10
0.0
 20
-5.0
 30
0.0
 11
0.0
 21
-9.5
 31
0.0
  0
LINE
  5
E8
330
DE
100
AcDbEntity
  8
FORMAT
 62
     0
100
AcDbLine
 10
5.0
 20
0.0
 30
0.0
 11
9.5
 21
0.0
 31
0.0
  0
ENDBLK
  5
E0
330
DE
100
AcDbEntity
  8
0
100
AcDbBlockEnd
  0
BLOCK
  5
EB
330
EA
100
AcDbEntity
  8
0
100
AcDbBlockBegin
  2
SW_CENTERMARKSYMBOL_2
 70
     0
 10
0.0
 20
0.0
 30
0.0
  3
SW_CENTERMARKSYMBOL_2
  1

  0
LINE
  5
ED
330
EA
100
AcDbEntity
  8
FORMAT
 62
     0
100
AcDbLine
 10
0.0
 20
0.0
 30
0.0
 11
0.0
 21
2.5
 31
0.0
  0
LINE
  5
EE
330
EA
100
AcDbEntity
  8
FORMAT
 62
     0
100
AcDbLine
 10
0.0
 20
0.0
 30
0.0
 11
-2.5
 21
0.0
 31
0.0
  0
LINE
  5
EF
330
EA
100
AcDbEntity
  8
FORMAT
 62
     0
100
AcDbLine
 10
0.0
 20
0.0
 30
0.0
 11
0.0
 21
-2.5
 31
0.0
  0
LINE
  5
F0
330
EA
100
AcDbEntity
  8
FORMAT
 62
     0
100
AcDbLine
 10
0.0
 20
0.0
 30
0.0
 11
2.5
 21
0.0
 31
0.0
  0
LINE
  5
F1
330
EA
100
AcDbEntity
  8
FORMAT
 62
     0
100
AcDbLine
 10
0.0
 20
5.0
 30
0.0
 11
0.0
 21
9.5
 31
0.0
  0
LINE
  5
F2
330
EA
100
AcDbEntity
  8
FORMAT
 62
     0
100
AcDbLine
 10
-5.0
 20
0.0
 30
0.0
 11
-9.5
 21
0.0
 31
0.0
  0
LINE
  5
F3
330
EA
100
AcDbEntity
  8
FORMAT
 62
     0
100
AcDbLine
 10
0.0
 20
-5.0
 30
0.0
 11
0.0
 21
-9.5
 31
0.0
  0
LINE
  5
F4
330
EA
100
AcDbEntity
  8
FORMAT
 62
     0
100
AcDbLine
 10
5.0
 20
0.0
 30
0.0
 11
9.5
 21
0.0
 31
0.0
  0
ENDBLK
  5
EC
330
EA
100
AcDbEntity
  8
0
100
AcDbBlockEnd
  0
ENDSEC
  0
SECTION
  2
ENTITIES
  0
LINE
  5
83
330
1F
100
AcDbEntity
  8
0
  6
Continuous
 62
     7
370
    25
100
AcDbLine
 10
137.6070913462
 20
297.9559902695
 30
0.0
 11
137.6070913462
 21
312.1749519231
 31
0.0
  0
LINE
  5
84
330
1F
100
AcDbEntity
  8
0
  6
Continuous
 62
     7
370
    25
100
AcDbLine
 10
123.6070913462
 20
312.1749519231
 30
0.0
 11
123.6070913462
 21
297.9533073488
 31
0.0
  0
CIRCLE
  5
85
330
1F
100
AcDbEntity
  8
0
  6
Continuous
 62
     7
370
    25
100
AcDbCircle
 10
130.6070913462
 20
95.8949519231
 30
0.0
 40
202.0
  0
ARC
  5
86
330
1F
100
AcDbEntity
  8
0
  6
Continuous
 62
     7
370
    25
100
AcDbCircle
 10
130.6070913462
 20
95.8949519231
 30
0.0
 40
203.0000000000003
100
AcDbArc
 50
91.9761082857
 51
180.0
  0
ARC
  5
87
330
1F
100
AcDbEntity
  8
0
  6
Continuous
 62
     7
370
    25
100
AcDbCircle
 10
130.6070913462
 20
95.8949519231
 30
0.0
 40
203.0000000000003
100
AcDbArc
 50
180.0
 51
88.0238917143
  0
SPLINE
  5
88
330
1F
100
AcDbEntity
  8
0
  6
Continuous
 62
     7
370
    25
100
AcDbSpline
210
0.0
220
0.0
230
1.0
 70
     8
 71
     3
 72
    14
 73
    10
 74
     0
 42
0.00000001
 43
0.00000001
 40
0.0
 40
0.0
 40
0.0
 40
0.0
 40
0.1431468950822045
 40
0.2862941936605036
 40
0.4294259946737793
 40
0.5725436443344075
 40
0.7156838340134226
 40
0.8588304899970338
 40
1.0
 40
1.0
 40
1.0
 40
1.0
 10
135.5597523823913
 20
297.9418437957551
 30
0.0
 10
134.9487501325321
 20
297.9479896450602
 30
0.0
 10
133.7267439105477
 20
297.9602813609941
 30
0.0
 10
131.3921586067106
 20
297.9737478691514
 30
0.0
 10
129.0103987041908
 20
297.9707717496734
 30
0.0
 10
126.793802144253
 20
297.9538066867173
 30
0.0
 10
125.025505440522
 20
297.9350119591936
 30
0.0
 10
123.8325317863916
 20
297.9276890856233
 30
0.0
 10
123.6853994192883
 20
297.9448076087234
 30
0.0
 10
123.612344817917
 20
297.9533073488266
 30
0.0
  0
SPLINE
  5
89
330
1F
100
AcDbEntity
  8
0
  6
Continuous
 62
     7
370
    25
100
AcDbSpline
210
0.0
220
0.0
230
1.0
 70
     8
 71
     3
 72
    10
 73
     6
 74
     0
 42
0.00000001
 43
0.00000001
 40
0.0
 40
0.0
 40
0.0
 40
0.0
 40
0.3005880626070659
 40
0.7297907956576309
 40
1.0
 40
1.0
 40
1.0
 40
1.0
 10
137.5236894875537
 20
297.9559902695389
 30
0.0
 10
137.518470972871
 20
297.9483185074766
 30
0.0
 10
137.5058010619323
 20
297.9296924140421
 30
0.0
 10
136.7227756294823
 20
297.9311817487824
 30
0.0
 10
135.8838579249599
 20
297.9388725494557
 30
0.0
 10
135.5597523823913
 20
297.9418437957551
 30
0.0
  0
CIRCLE
  5
8A
330
1F
100
AcDbEntity
  8
0
  6
Continuous
 62
     7
370
    25
100
AcDbCircle
 10
130.6070913462
 20
95.8949519231
 30
0.0
 40
178.2
  0
LINE
  5
8B
330
1F
100
AcDbEntity
  8
0
  6
Continuous
 62
     7
370
    25
100
AcDbLine
 10
137.6070913462
 20
312.1749519231
 30
0.0
 11
123.6070913462
 21
312.1749519231
 31
0.0
  0
INSERT
  5
97
330
1F
100
AcDbEntity
  8
FORMAT
 62
     7
100
AcDbBlockReference
  2
SW_CENTERMARKSYMBOL_0
 10
130.6070913462
 20
95.8949519231
 30
0.0
  0
LINE
  5
98
330
1F
100
AcDbEntity
  8
0
  6
Continuous
 62
     7
370
    25
100
AcDbLine
 10
616.8627268644
 20
297.9723019218
 30
0.0
 11
611.8327250257
 21
297.8949519231
 31
0.0
  0
ARC
  5
99
330
1F
100
AcDbEntity
  8
0
  6
Continuous
 62
     7
370
    25
100
AcDbCircle
 10
739.3327250257
 20
-7829.730048077
 30
0.0
 40
8128.625000000072
100
AcDbArc
 50
90.0
 51
90.7653034587
  0
ARC
  5
9A
330
1F
100
AcDbEntity
  8
0
  6
Continuous
 62
     7
370
    25
100
AcDbCircle
 10
739.3327250257
 20
8021.5199519231
 30
0.0
 40
8128.62500000007
100
AcDbArc
 50
269.1012611026
 51
270.0
  0
LINE
  5
9B
330
1F
100
AcDbEntity
  8
0
  6
Continuous
 62
     7
370
    25
100
AcDbLine
 10
739.3327250257
 20
-107.1050480769
 30
0.0
 11
764.3327250257
 21
-107.1050480769
 31
0.0
  0
LINE
  5
9C
330
1F
100
AcDbEntity
  8
0
  6
Continuous
 62
     7
370
    25
100
AcDbLine
 10
764.3327250257
 20
298.8949519231
 30
0.0
 11
739.3327250257
 21
298.8949519231
 31
0.0
  0
ARC
  5
9D
330
1F
100
AcDbEntity
  8
0
  6
Continuous
 62
     7
370
    25
100
AcDbCircle
 10
764.3327250257
 20
-7829.730048077
 30
0.0
 40
8128.625000000071
100
AcDbArc
 50
89.2345556262
 51
90.0
  0
LINE
  5
9E
330
1F
100
AcDbEntity
  8
0
  6
Continuous
 62
     7
370
    25
100
AcDbLine
 10
891.8327250257
 20
297.8949519231
 30
0.0
 11
886.7447396056
 21
297.9731754243
 31
0.0
  0
ARC
  5
9F
330
1F
100
AcDbEntity
  8
0
  6
Continuous
 62
     7
370
    25
100
AcDbCircle
 10
764.3327250257
 20
8021.5199519231
 30
0.0
 40
8128.62500000007
100
AcDbArc
 50
270.0
 51
270.8987388974
  0
LINE
  5
A0
330
1F
100
AcDbEntity
  8
0
  6
Continuous
 62
     7
370
    25
100
AcDbLine
 10
630.8327250257
 20
298.1674319154
 30
0.0
 11
630.8327250257
 21
312.1749519231
 31
0.0
  0
LINE
  5
A1
330
1F
100
AcDbEntity
  8
0
  6
Continuous
 62
     7
370
    25
100
AcDbLine
 10
616.8327250257
 20
312.1749519231
 30
0.0
 11
616.8327250257
 21
297.9713001122
 31
0.0
  0
LINE
  5
A2
330
1F
100
AcDbEntity
  8
0
  6
Continuous
 62
     7
370
    25
100
AcDbLine
 10
886.8327250257
 20
297.9701627671
 30
0.0
 11
886.8327250257
 21
312.1749519231
 31
0.0
  0
LINE
  5
A3
330
1F
100
AcDbEntity
  8
0
  6
Continuous
 62
     7
370
    25
100
AcDbLine
 10
872.8327250257
 20
312.1749519231
 30
0.0
 11
872.8327250257
 21
298.1664579835
 31
0.0
  0
LINE
  5
A4
330
1F
100
AcDbEntity
  8
0
  6
Continuous
 62
     7
370
    25
100
AcDbLine
 10
611.8327250257
 20
95.8949519231
 30
0.0
 11
611.8327250257
 21
297.8949519231
 31
0.0
  0
LINE
  5
A5
330
1F
100
AcDbEntity
  8
0
  6
Continuous
 62
     7
370
    25
100
AcDbLine
 10
611.8327250257
 20
-106.1050480769
 30
0.0
 11
611.8327250257
 21
95.8949519231
 31
0.0
  0
SPLINE
  5
A6
330
1F
100
AcDbEntity
  8
0
  6
Continuous
 62
     7
370
    25
100
AcDbSpline
210
0.0
220
0.0
230
1.0
 70
     8
 71
     3
 72
    18
 73
    14
 74
     0
 42
0.00000001
 43
0.00000001
 40
0.0
 40
0.0
 40
0.0
 40
0.0
 40
0.025295533603735
 40
0.1325189392668712
 40
0.2397688683376627
 40
0.3471260120867207
 40
0.4545407892870961
 40
0.5619089786524326
 40
0.6692058289802729
 40
0.7764946534909324
 40
0.8838214530655039
 40
0.9911625307710615
 40
1.0
 40
1.0
 40
1.0
 40
1.0
 10
630.7613288628044
 20
298.1674042251587
 30
0.0
 10
630.7831532960454
 20
298.1684406495416
 30
0.0
 10
630.8974877389754
 20
298.1738702981901
 30
0.0
 10
630.3177940208645
 20
298.1459839934843
 30
0.0
 10
629.048852678441
 20
298.0908694347053
 30
0.0
 10
627.1277124952536
 20
298.0224760416696
 30
0.0
 10
624.8515897973261
 20
297.9655617757479
 30
0.0
 10
622.4542971936553
 20
297.9336437793455
 30
0.0
 10
620.2203941124031
 20
297.9297574529981
 30
0.0
 10
618.3712175104188
 20
297.9456571370664
 30
0.0
 10
617.2205369542467
 20
297.9640565364209
 30
0.0
 10
616.7234396544839
 20
297.973905185077
 30
0.0
 10
616.8527613808706
 20
297.9714724139584
 30
0.0
 10
616.8625986254198
 20
297.971287357935
 30
0.0
  0
LINE
  5
A7
330
1F
100
AcDbEntity
  8
0
  6
Continuous
 62
     7
370
    25
100
AcDbLine
 10
891.8327250257
 20
95.8949519231
 30
0.0
 11
891.8327250257
 21
297.8949519231
 31
0.0
  0
LINE
  5
A8
330
1F
100
AcDbEntity
  8
0
  6
Continuous
 62
     7
370
    25
100
AcDbLine
 10
891.8327250257
 20
-106.1050480769
 30
0.0
 11
891.8327250257
 21
95.8949519231
 31
0.0
  0
SPLINE
  5
A9
330
1F
100
AcDbEntity
  8
0
  6
Continuous
 62
     7
370
    25
100
AcDbSpline
210
0.0
220
0.0
230
1.0
 70
     8
 71
     3
 72
    17
 73
    13
 74
     0
 42
0.00000001
 43
0.00000001
 40
0.0
 40
0.0
 40
0.0
 40
0.0
 40
0.071823523085924
 40
0.1792112578146396
 40
0.286615905352649
 40
0.394025404855488
 40
0.501400854683154
 40
0.6087546807622017
 40
0.7161561586941902
 40
0.8236303274732579
 40
0.9310977268196093
 40
1.0
 40
1.0
 40
1.0
 40
1.0
 10
886.7447744324918
 20
297.9701571279354
 30
0.0
 10
886.7448474315061
 20
297.9701363193026
 30
0.0
 10
886.7450295758038
 20
297.9700843984128
 30
0.0
 10
885.8448865609989
 20
297.9535254155328
 30
0.0
 10
884.2681936205381
 20
297.9347688494693
 30
0.0
 10
882.1613700930361
 20
297.9289096267868
 30
0.0
 10
879.800011269181
 20
297.9489614155296
 30
0.0
 10
877.442971670403
 20
297.9967263129626
 30
0.0
 10
875.3468831311702
 20
298.0627231520405
 30
0.0
 10
873.7872734718047
 20
298.1259048159258
 30
0.0
 10
872.9095960748001
 20
298.1670688152866
 30
0.0
 10
872.9199354855289
 20
298.1666222547078
 30
0.0
 10
872.923974779203
 20
298.1664477970554
 30
0.0
  0
LINE
  5
AA
330
1F
100
AcDbEntity
  8
0
  6
Continuous
 62
     7
370
    25
100
AcDbLine
 10
630.8327250257
 20
312.1749519231
 30
0.0
 11
616.8327250257
 21
312.1749519231
 31
0.0
  0
LINE
  5
AB
330
1F
100
AcDbEntity
  8
0
  6
Continuous
 62
     7
370
    25
100
AcDbLine
 10
886.8327250257
 20
312.1749519231
 30
0.0
 11
872.8327250257
 21
312.1749519231
 31
0.0
  0
LINE
  5
AC
330
1F
100
AcDbEntity
  8
0
  6
Continuous
 62
     1
370
    25
100
AcDbLine
 10
739.3327250257
 20
95.8949519231
 30
0.0
 11
739.3327250257
 21
298.8949519231
 31
0.0
  0
LINE
  5
AD
330
1F
100
AcDbEntity
  8
0
  6
Continuous
 62
     1
370
    25
100
AcDbLine
 10
739.3327250257
 20
-107.1050480769
 30
0.0
 11
739.3327250257
 21
95.8949519231
 31
0.0
  0
LINE
  5
AE
330
1F
100
AcDbEntity
  8
0
  6
Continuous
 62
     1
370
    25
100
AcDbLine
 10
764.3327250257
 20
95.8949519231
 30
0.0
 11
764.3327250257
 21
298.8949519231
 31
0.0
  0
LINE
  5
AF
330
1F
100
AcDbEntity
  8
0
  6
Continuous
 62
     1
370
    25
100
AcDbLine
 10
764.3327250257
 20
-107.1050480769
 30
0.0
 11
764.3327250257
 21
95.8949519231
 31
0.0
  0
ARC
  5
B0
330
1F
100
AcDbEntity
  8
0
  6
Continuous
 62
     7
370
    25
100
AcDbCircle
 10
8056.2320913462
 20
664.0389203267
 30
0.0
 40
8128.625000000071
100
AcDbArc
 50
180.0
 51
180.8987388974
  0
ARC
  5
B1
330
1F
100
AcDbEntity
  8
0
  6
Continuous
 62
     7
370
    25
100
AcDbCircle
 10
-7795.0179086539
 20
664.0389203267
 30
0.0
 40
8128.62500000007
100
AcDbArc
 50
359.1012611026
 51
0.0
  0
LINE
  5
B2
330
1F
100
AcDbEntity
  8
0
  6
Continuous
 62
     7
370
    25
100
AcDbLine
 10
333.6070913462
 20
664.0389203267
 30
0.0
 11
333.6070913462
 21
689.0389203267
 31
0.0
  0
LINE
  5
B3
330
1F
100
AcDbEntity
  8
0
  6
Continuous
 62
     7
370
    25
100
AcDbLine
 10
-72.3929086538
 20
689.0389203267
 30
0.0
 11
-72.3929086538
 21
664.0389203267
 31
0.0
  0
ARC
  5
B4
330
1F
100
AcDbEntity
  8
0
  6
Continuous
 62
     7
370
    25
100
AcDbCircle
 10
8056.2320913462
 20
689.0389203267
 30
0.0
 40
8128.625000000071
100
AcDbArc
 50
179.1012611026
 51
180.0
  0
ARC
  5
B5
330
1F
100
AcDbEntity
  8
0
  6
Continuous
 62
     7
370
    25
100
AcDbCircle
 10
-7795.0179086539
 20
689.0389203267
 30
0.0
 40
8128.625000000071
100
AcDbArc
 50
0.0
 51
0.8987388974
  0
LINE
  5
B6
330
1F
100
AcDbEntity
  8
0
  6
Continuous
 62
     7
370
    25
100
AcDbLine
 10
332.6070913462
 20
536.5389203267
 30
0.0
 11
-71.3929086538
 21
536.5389203267
 31
0.0
  0
LINE
  5
B7
330
1F
100
AcDbEntity
  8
0
  6
Continuous
 62
     7
370
    25
100
AcDbLine
 10
332.6070913462
 20
816.5389203267
 30
0.0
 11
-71.3929086538
 21
816.5389203267
 31
0.0
  0
LINE
  5
B8
330
1F
100
AcDbEntity
  8
0
  6
Continuous
 62
     1
370
    25
100
AcDbLine
 10
333.6070913462
 20
664.0389203267
 30
0.0
 11
-72.3929086538
 21
664.0389203267
 31
0.0
  0
LINE
  5
B9
330
1F
100
AcDbEntity
  8
0
  6
Continuous
 62
     1
370
    25
100
AcDbLine
 10
333.6070913462
 20
689.0389203267
 30
0.0
 11
-72.3929086538
 21
689.0389203267
 31
0.0
  0
ARC
  5
BA
330
1F
100
AcDbEntity
  8
0
  6
Continuous
 62
     7
370
    25
100
AcDbCircle
 10
-541.329527369
 20
8021.5199519231
 30
0.0
 40
8128.62500000007
100
AcDbArc
 50
270.0
 51
270.8987388974
  0
ARC
  5
BB
330
1F
100
AcDbEntity
  8
0
  6
Continuous
 62
     7
370
    25
100
AcDbCircle
 10
-541.329527369
 20
-7829.730048077
 30
0.0
 40
8128.625000000071
100
AcDbArc
 50
89.2346956305
 51
90.0
  0
LINE
  5
BC
330
1F
100
AcDbEntity
  8
0
  6
Continuous
 62
     7
370
    25
100
AcDbLine
 10
-413.829527369
 20
297.8949519231
 30
0.0
 11
-418.8594305036
 21
297.9723004345
 31
0.0
  0
LINE
  5
BD
330
1F
100
AcDbEntity
  8
0
  6
Continuous
 62
     7
370
    25
100
AcDbLine
 10
-541.329527369
 20
298.8949519231
 30
0.0
 11
-566.329527369
 21
298.8949519231
 31
0.0
  0
LINE
  5
BE
330
1F
100
AcDbEntity
  8
0
  6
Continuous
 62
     7
370
    25
100
AcDbLine
 10
-566.329527369
 20
-107.1050480769
 30
0.0
 11
-541.329527369
 21
-107.1050480769
 31
0.0
  0
ARC
  5
BF
330
1F
100
AcDbEntity
  8
0
  6
Continuous
 62
     7
370
    25
100
AcDbCircle
 10
-566.329527369
 20
8021.5199519231
 30
0.0
 40
8128.62500000007
100
AcDbArc
 50
269.1012611026
 51
270.0
  0
LINE
  5
C0
330
1F
100
AcDbEntity
  8
0
  6
Continuous
 62
     7
370
    25
100
AcDbLine
 10
-688.7414785474
 20
297.9731763792
 30
0.0
 11
-693.829527369
 21
297.8949519231
 31
0.0
  0
ARC
  5
C1
330
1F
100
AcDbEntity
  8
0
  6
Continuous
 62
     7
370
    25
100
AcDbCircle
 10
-566.329527369
 20
-7829.730048077
 30
0.0
 40
8128.625000000071
100
AcDbArc
 50
90.0
 51
90.7654435077
  0
LINE
  5
C2
330
1F
100
AcDbEntity
  8
0
  6
Continuous
 62
     7
370
    25
100
AcDbLine
 10
-418.829527369
 20
297.9713001122
 30
0.0
 11
-418.829527369
 21
312.1749519231
 31
0.0
  0
LINE
  5
C3
330
1F
100
AcDbEntity
  8
0
  6
Continuous
 62
     7
370
    25
100
AcDbLine
 10
-432.829527369
 20
312.1749519231
 30
0.0
 11
-432.829527369
 21
298.1674319154
 31
0.0
  0
LINE
  5
C4
330
1F
100
AcDbEntity
  8
0
  6
Continuous
 62
     7
370
    25
100
AcDbLine
 10
-674.829527369
 20
298.1664579835
 30
0.0
 11
-674.829527369
 21
312.1749519231
 31
0.0
  0
LINE
  5
C5
330
1F
100
AcDbEntity
  8
0
  6
Continuous
 62
     7
370
    25
100
AcDbLine
 10
-688.829527369
 20
312.1749519231
 30
0.0
 11
-688.829527369
 21
297.9701627671
 31
0.0
  0
LINE
  5
C6
330
1F
100
AcDbEntity
  8
0
  6
Continuous
 62
     7
370
    25
100
AcDbLine
 10
-413.829527369
 20
297.8949519231
 30
0.0
 11
-413.829527369
 21
-106.1050480769
 31
0.0
  0
SPLINE
  5
C7
330
1F
100
AcDbEntity
  8
0
  6
Continuous
 62
     7
370
    25
100
AcDbSpline
210
0.0
220
0.0
230
1.0
 70
     8
 71
     3
 72
     9
 73
     5
 74
     0
 42
0.00000001
 43
0.00000001
 40
0.0
 40
0.0
 40
0.0
 40
0.0
 40
0.5668124212247956
 40
1.0
 40
1.0
 40
1.0
 40
1.0
 10
-431.6247374840493
 20
298.1165125386555
 30
0.0
 10
-432.0208973226907
 20
298.1340842750261
 30
0.0
 10
-432.7198231468378
 20
298.1650852476806
 30
0.0
 10
-432.7465540304735
 20
298.1667033798303
 30
0.0
 10
-432.7581335172341
 20
298.1674043345784
 30
0.0
  0
SPLINE
  5
C8
330
1F
100
AcDbEntity
  8
0
  6
Continuous
 62
     7
370
    25
100
AcDbSpline
210
0.0
220
0.0
230
1.0
 70
     8
 71
     3
 72
    15
 73
    11
 74
     0
 42
0.00000001
 43
0.00000001
 40
0.0
 40
0.0
 40
0.0
 40
0.0
 40
0.1215724971959452
 40
0.2540296131882378
 40
0.3865102443176007
 40
0.5189844918746607
 40
0.6514115921678301
 40
0.7838301854661371
 40
0.9163259059853514
 40
1.0
 40
1.0
 40
1.0
 40
1.0
 10
-418.8593540145921
 20
297.9712882386492
 30
0.0
 10
-418.9126367287391
 20
297.9701846365033
 30
0.0
 10
-419.0239726606033
 20
297.9678786245952
 30
0.0
 10
-420.1505114079078
 20
297.9484933209159
 30
0.0
 10
-421.8806660269654
 20
297.9314504954048
 30
0.0
 10
-424.0735436441713
 20
297.9311918968394
 30
0.0
 10
-426.4616080477431
 20
297.9584887420242
 30
0.0
 10
-428.7691549253824
 20
298.0119126402884
 30
0.0
 10
-430.5361344960768
 20
298.0717869449815
 30
0.0
 10
-431.3209531944128
 20
298.1040314662601
 30
0.0
 10
-431.6247374840493
 20
298.1165125386555
 30
0.0
  0
LINE
  5
C9
330
1F
100
AcDbEntity
  8
0
  6
Continuous
 62
     7
370
    25
100
AcDbLine
 10
-693.829527369
 20
297.8949519231
 30
0.0
 11
-693.829527369
 21
-106.1050480769
 31
0.0
  0
SPLINE
  5
CA
330
1F
100
AcDbEntity
  8
0
  6
Continuous
 62
     7
370
    25
100
AcDbSpline
210
0.0
220
0.0
230
1.0
 70
     8
 71
     3
 72
    10
 73
     6
 74
     0
 42
0.00000001
 43
0.00000001
 40
0.0
 40
0.0
 40
0.0
 40
0.0
 40
0.4289512655667782
 40
0.8579037402422857
 40
1.0
 40
1.0
 40
1.0
 40
1.0
 10
-686.7763595533229
 20
297.9418437957551
 30
0.0
 10
-687.2681668644129
 20
297.9477824998171
 30
0.0
 10
-688.2517828728774
 20
297.9596599246808
 30
0.0
 10
-688.8624864881394
 20
297.9725395173652
 30
0.0
 10
-688.7656621929906
 20
297.9706317080537
 30
0.0
 10
-688.74156903007
 20
297.9701569805022
 30
0.0
  0
SPLINE
  5
CB
330
1F
100
AcDbEntity
  8
0
  6
Continuous
 62
     7
370
    25
100
AcDbSpline
210
0.0
220
0.0
230
1.0
 70
     8
 71
     3
 72
    15
 73
    11
 74
     0
 42
0.00000001
 43
0.00000001
 40
0.0
 40
0.0
 40
0.0
 40
0.0
 40
0.0512609112738871
 40
0.1942391217996181
 40
0.3372727705665667
 40
0.4804507750660696
 40
0.6236883878299124
 40
0.7668516399798394
 40
0.9099259971318123
 40
1.0
 40
1.0
 40
1.0
 40
1.0
 10
-674.9207778291451
 20
298.1664477635321
 30
0.0
 10
-674.8962908231176
 20
298.1676135029159
 30
0.0
 10
-674.8035040499591
 20
298.1720307516248
 30
0.0
 10
-675.4620962636861
 20
298.1405082015152
 30
0.0
 10
-676.8225356383788
 20
298.0825414214636
 30
0.0
 10
-678.7991243242303
 20
298.0145154915101
 30
0.0
 10
-681.1068734864128
 20
297.9600730002309
 30
0.0
 10
-683.4907922188278
 20
297.9317879303492
 30
0.0
 10
-685.4440044371479
 20
297.9308490952482
 30
0.0
 10
-686.4050654464321
 20
297.9387798472208
 30
0.0
 10
-686.7763595533229
 20
297.9418437957551
 30
0.0
  0
LINE
  5
CC
330
1F
100
AcDbEntity
  8
0
  6
Continuous
 62
     7
370
    25
100
AcDbLine
 10
-418.829527369
 20
312.1749519231
 30
0.0
 11
-432.829527369
 21
312.1749519231
 31
0.0
  0
LINE
  5
CD
330
1F
100
AcDbEntity
  8
0
  6
Continuous
 62
     7
370
    25
100
AcDbLine
 10
-674.829527369
 20
312.1749519231
 30
0.0
 11
-688.829527369
 21
312.1749519231
 31
0.0
  0
LINE
  5
CE
330
1F
100
AcDbEntity
  8
0
  6
Continuous
 62
     1
370
    25
100
AcDbLine
 10
-541.329527369
 20
298.8949519231
 30
0.0
 11
-541.329527369
 21
-107.1050480769
 31
0.0
  0
LINE
  5
CF
330
1F
100
AcDbEntity
  8
0
  6
Continuous
 62
     1
370
    25
100
AcDbLine
 10
-566.329527369
 20
298.8949519231
 30
0.0
 11
-566.329527369
 21
-107.1050480769
 31
0.0
  0
ARC
  5
D0
330
1F
100
AcDbEntity
  8
0
  6
Continuous
 62
     7
370
    25
100
AcDbCircle
 10
-7795.0179086539
 20
-522.6687004425
 30
0.0
 40
8128.62500000007
100
AcDbArc
 50
0.0
 51
0.8987388974
  0
ARC
  5
D1
330
1F
100
AcDbEntity
  8
0
  6
Continuous
 62
     7
370
    25
100
AcDbCircle
 10
8056.2320913462
 20
-522.6687004425
 30
0.0
 40
8128.625000000071
100
AcDbArc
 50
179.1012611026
 51
180.0
  0
LINE
  5
D2
330
1F
100
AcDbEntity
  8
0
  6
Continuous
 62
     7
370
    25
100
AcDbLine
 10
-72.3929086538
 20
-522.6687004425
 30
0.0
 11
-72.3929086538
 21
-547.6687004425
 31
0.0
  0
LINE
  5
D3
330
1F
100
AcDbEntity
  8
0
  6
Continuous
 62
     7
370
    25
100
AcDbLine
 10
333.6070913462
 20
-547.6687004425
 30
0.0
 11
333.6070913462
 21
-522.6687004425
 31
0.0
  0
ARC
  5
D4
330
1F
100
AcDbEntity
  8
0
  6
Continuous
 62
     7
370
    25
100
AcDbCircle
 10
-7795.0179086539
 20
-547.6687004425
 30
0.0
 40
8128.625000000071
100
AcDbArc
 50
359.1012611026
 51
0.0
  0
ARC
  5
D5
330
1F
100
AcDbEntity
  8
0
  6
Continuous
 62
     7
370
    25
100
AcDbCircle
 10
8056.2320913462
 20
-547.6687004425
 30
0.0
 40
8128.625000000071
100
AcDbArc
 50
180.0
 51
180.8987388974
  0
CIRCLE
  5
D6
330
1F
100
AcDbEntity
  8
0
  6
Continuous
 62
     7
370
    25
100
AcDbCircle
 10
130.6070913462
 20
-407.1687004425
 30
0.0
 40
7.000000000000057
  0
CIRCLE
  5
D7
330
1F
100
AcDbEntity
  8
0
  6
Continuous
 62
     7
370
    25
100
AcDbCircle
 10
130.6070913462
 20
-407.1687004425
 30
0.0
 40
5.0
  0
CIRCLE
  5
D8
330
1F
100
AcDbEntity
  8
0
  6
Continuous
 62
     7
370
    25
100
AcDbCircle
 10
130.6070913462
 20
-663.1687004425
 30
0.0
 40
7.0
  0
CIRCLE
  5
D9
330
1F
100
AcDbEntity
  8
0
  6
Continuous
 62
     7
370
    25
100
AcDbCircle
 10
130.6070913462
 20
-663.1687004425
 30
0.0
 40
5.0
  0
LINE
  5
DA
330
1F
100
AcDbEntity
  8
0
  6
Continuous
 62
     7
370
    25
100
AcDbLine
 10
-71.3929086538
 20
-395.1687004425
 30
0.0
 11
332.6070913462
 21
-395.1687004425
 31
0.0
  0
LINE
  5
DB
330
1F
100
AcDbEntity
  8
0
  6
Continuous
 62
     7
370
    25
100
AcDbLine
 10
-71.3929086538
 20
-675.1687004425
 30
0.0
 11
332.6070913462
 21
-675.1687004425
 31
0.0
  0
LINE
  5
DC
330
1F
100
AcDbEntity
  8
0
  6
Continuous
 62
     1
370
    25
100
AcDbLine
 10
-72.3929086538
 20
-522.6687004425
 30
0.0
 11
333.6070913462
 21
-522.6687004425
 31
0.0
  0
LINE
  5
DD
330
1F
100
AcDbEntity
  8
0
  6
Continuous
 62
     1
370
    25
100
AcDbLine
 10
-72.3929086538
 20
-547.6687004425
 30
0.0
 11
333.6070913462
 21
-547.6687004425
 31
0.0
  0
INSERT
  5
E9
330
1F
100
AcDbEntity
  8
FORMAT
 62
     7
100
AcDbBlockReference
  2
SW_CENTERMARKSYMBOL_1
 10
130.6070913462
 20
-407.1687004425
 30
0.0
  0
INSERT
  5
F5
330
1F
100
AcDbEntity
  8
FORMAT
 62
     7
100
AcDbBlockReference
  2
SW_CENTERMARKSYMBOL_2
 10
130.6070913462
 20
-663.1687004425
 30
0.0
  0
SPLINE
  5
F6
330
1F
100
AcDbEntity
  8
0
  6
Continuous
 62
     7
370
    25
100
AcDbSpline
210
0.0
220
0.0
230
1.0
 70
     8
 71
     3
 72
    11
 73
     7
 74
     0
 42
0.00000001
 43
0.00000001
 40
0.0
 40
0.0
 40
0.0
 40
0.0
 40
0.1517092124214995
 40
0.5466379038095464
 40
0.9415230545686089
 40
1.0
 40
1.0
 40
1.0
 40
1.0
 10
649.6388209017591
 20
-323.0106945996629
 30
0.0
 10
645.0174549285748
 20
-325.6670709958509
 30
0.0
 10
628.3657713030635
 20
-335.2385136377584
 30
0.0
 10
599.8626688047577
 20
-352.028897324035
 30
0.0
 10
574.2260158134795
 20
-367.2306945976653
 30
0.0
 10
560.6140286413299
 20
-375.4995333762943
 30
0.0
 10
558.8582854114323
 20
-376.5660901928035
 30
0.0
  0
SPLINE
  5
F7
330
1F
100
AcDbEntity
  8
0
  6
Continuous
 62
     7
370
    25
100
AcDbSpline
210
0.0
220
0.0
230
1.0
 70
     8
 71
     3
 72
    10
 73
     6
 74
     0
 42
0.00000001
 43
0.00000001
 40
0.0
 40
0.0
 40
0.0
 40
0.0
 40
0.3617683957087303
 40
0.7567486758383912
 40
1.0
 40
1.0
 40
1.0
 40
1.0
 10
760.8136167712107
 20
-726.4003234022495
 30
0.0
 10
771.9298302823413
 20
-720.2386894881681
 30
0.0
 10
795.1827732001572
 20
-707.3497573404408
 30
0.0
 10
825.7666434448614
 20
-690.0538237713536
 30
0.0
 10
845.1842169921404
 20
-678.8369639705779
 30
0.0
 10
852.5849010786425
 20
-674.5618450621314
 30
0.0
  0
LINE
  5
F8
330
1F
100
AcDbEntity
  8
0
  6
Continuous
 62
     7
370
    25
100
AcDbLine
 10
667.2977621756
 20
-312.7732591533
 30
0.0
 11
649.6200926459
 21
-322.978360551
 31
0.0
  0
LINE
  5
F9
330
1F
100
AcDbEntity
  8
0
  6
Continuous
 62
     7
370
    25
100
AcDbLine
 10
852.6035953711
 20
-674.5941986776
 30
0.0
 11
870.2812649007
 21
-664.3890972798
 31
0.0
  0
SPLINE
  5
FA
330
1F
100
AcDbEntity
  8
0
  6
Continuous
 62
     7
370
    25
100
AcDbSpline
210
0.0
220
0.0
230
1.0
 70
     8
 71
     3
 72
    10
 73
     6
 74
     0
 42
0.00000001
 43
0.00000001
 40
0.0
 40
0.0
 40
0.0
 40
0.0
 40
0.3617704049072459
 40
0.7567496717403255
 40
1.0
 40
1.0
 40
1.0
 40
1.0
 10
759.0880113409657
 20
-260.9669839738052
 30
0.0
 10
747.9717075437777
 20
-267.1286678597558
 30
0.0
 10
724.7186743067318
 20
-280.0176499180212
 30
0.0
 10
694.1347254365801
 20
-297.3136275588403
 30
0.0
 10
674.7171632040245
 20
-308.5304808275373
 30
0.0
 10
667.3164904314224
 20
-312.8055932018775
 30
0.0
  0
SPLINE
  5
FB
330
1F
100
AcDbEntity
  8
0
  6
Continuous
 62
     7
370
    25
100
AcDbSpline
210
0.0
220
0.0
230
1.0
 70
     8
 71
     3
 72
    11
 73
     7
 74
     0
 42
0.00000001
 43
0.00000001
 40
0.0
 40
0.0
 40
0.0
 40
0.0
 40
0.1517115709424574
 40
0.5466473700621558
 40
0.9415396277672976
 40
1.0
 40
1.0
 40
1.0
 40
1.0
 10
870.2625706083059
 20
-664.3567436643484
 30
0.0
 10
874.8839252640803
 20
-661.7003737951991
 30
0.0
 10
891.5355975986965
 20
-652.1289377217199
 30
0.0
 10
920.0386879085846
 20
-635.3385591574183
 30
0.0
 10
945.6748109791735
 20
-620.1370821737115
 30
0.0
 10
959.2862699468693
 20
-611.8685664581808
 30
0.0
 10
961.041484112034
 20
-610.8023313144514
 30
0.0
  0
LINE
  5
FC
330
1F
100
AcDbEntity
  8
0
  6
Continuous
 62
     7
370
    25
100
AcDbLine
 10
676.4410107815
 20
-380.8395524791
 30
0.0
 11
676.4410107815
 21
-369.3324012774
 31
0.0
  0
LINE
  5
FD
330
1F
100
AcDbEntity
  8
0
  6
Continuous
 62
     7
370
    25
100
AcDbLine
 10
662.4410107815
 20
-369.3324012774
 30
0.0
 11
662.4410107815
 21
-380.9537151238
 31
0.0
  0
LINE
  5
FE
330
1F
100
AcDbEntity
  8
0
  6
Continuous
 62
     7
370
    25
100
AcDbLine
 10
857.4603467652
 20
-276.4531688729
 30
0.0
 11
857.4603467652
 21
-264.8321629641
 31
0.0
  0
LINE
  5
FF
330
1F
100
AcDbEntity
  8
0
  6
Continuous
 62
     7
370
    25
100
AcDbLine
 10
843.4603467652
 20
-264.8321629641
 30
0.0
 11
843.4603467652
 21
-276.339203231
 31
0.0
  0
LWPOLYLINE
  5
100
330
1F
100
AcDbEntity
  8
0
  6
Continuous
 62
     7
370
    25
100
AcDbPolyline
 90
      151
 70
   128
 43
0.0
 10
518.1201596075
 20
-468.3750774489
 10
518.2454506702
 20
-461.5403840204
 10
518.621104055
 20
-454.8623389483
 10
519.2464607383
 20
-448.3526577931
 10
520.120423632
 20
-442.0227607474
 10
521.2414595082
 20
-435.8837526015
 10
522.607601689
 20
-429.9464032619
 10
524.2164534969
 20
-424.2211288567
 10
526.065192459
 20
-418.7179734627
 10
528.150575259
 20
-413.4465914845
 10
530.4689434269
 20
-408.4162307174
 10
533.0162297571
 20
-403.6357161233
 10
535.7879654439
 20
-399.1134343494
 10
538.7792879209
 20
-394.8573190146
 10
541.9849493921
 20
-390.8748367913
 10
545.399326038
 20
-387.1729743067
 10
549.0164278818
 20
-383.7582258854
 10
552.8299092977
 20
-380.6365821566
 10
556.8330801434
 20
-377.8135195441
 10
561.018917497
 20
-375.293990659
 10
565.3800779775
 20
-373.082415611
 10
569.9089106275
 20
-371.1826742544
 10
574.5974703355
 20
-369.5980993809
 10
579.4375317746
 20
-368.3314708735
 10
584.4206038325
 20
-367.3850108288
 10
589.5379445074
 20
-366.7603796594
 10
594.7805762449
 20
-366.4586731806
 10
600.1393016876
 20
-366.4804206881
 10
605.6047198101
 20
-366.8255840294
 10
611.1672424118
 20
-367.4935576708
 10
616.8171109379
 20
-368.4831697593
 10
622.5444135992
 20
-369.7926841793
 10
628.3391027607
 20
-371.4198035974
 10
634.1910125685
 20
-373.3616734932
 10
640.0898767844
 20
-375.6148871671
 10
646.0253467961
 20
-378.1754917167
 10
651.9870097722
 20
-381.0389949715
 10
657.9644069302
 20
-384.2003733737
 10
663.9470518842
 20
-387.6540807915
 10
669.9244490422
 20
-391.3940582483
 10
675.8861120183
 20
-395.413744553
 10
681.82158203
 20
-399.7060878097
 10
687.7204462459
 20
-404.26355779
 10
693.5723560537
 20
-409.0781591428
 10
699.3670452152
 20
-414.1414454213
 10
705.0943478765
 20
-419.4445339009
 10
710.7442164027
 20
-424.9781211624
 10
716.3067390044
 20
-430.7324994134
 10
721.7721571268
 20
-436.6975735191
 10
727.1308825695
 20
-442.8628787125
 10
732.3735143071
 20
-449.2175989535
 10
737.490854982
 20
-455.7505859032
 10
742.4739270398
 20
-462.4503784828
 10
747.313988479
 20
-469.3052229794
 10
752.002548187
 20
-476.3030936664
 10
756.5313808369
 20
-483.4317139009
 10
760.8925413174
 20
-490.6785776605
 10
765.078378671
 20
-498.0309714837
 10
769.0815495168
 20
-505.4759967735
 10
772.8950309326
 20
-513.0005924256
 10
776.5121327764
 20
-520.5915577423
 10
779.9265094223
 20
-528.2355755912
 10
783.1321708935
 20
-535.9192357673
 10
786.1234933705
 20
-543.6290585199
 10
788.8952290573
 20
-551.3515182
 10
791.4425153875
 20
-559.0730669893
 10
793.7608835554
 20
-566.7801586673
 10
795.8462663554
 20
-574.4592723764
 10
797.6950053176
 20
-582.0969363417
 10
799.3038571254
 20
-589.6797515054
 10
800.6699993062
 20
-597.1944150329
 10
801.7910351824
 20
-604.627743651
 10
802.6649980761
 20
-611.9666967755
 10
803.2903547594
 20
-619.1983993886
 10
803.6660081443
 20
-626.3101646268
 10
803.7912992069
 20
-633.2895160371
 10
803.6660081443
 20
-640.1242094657
 10
803.2903547594
 20
-646.8022545377
 10
802.6649980761
 20
-653.311935693
 10
801.7910351824
 20
-659.6418327387
 10
800.6699993062
 20
-665.7808408845
 10
799.3038571254
 20
-671.7181902242
 10
797.6950053176
 20
-677.4434646294
 10
795.8462663554
 20
-682.9466200233
 10
793.7608835554
 20
-688.2180020015
 10
791.4425153875
 20
-693.2483627687
 10
788.8952290573
 20
-698.0288773627
 10
786.1234933705
 20
-702.5511591366
 10
783.1321708935
 20
-706.8072744715
 10
779.9265094223
 20
-710.7897566948
 10
776.5121327764
 20
-714.4916191794
 10
772.8950309326
 20
-717.9063676006
 10
769.0815495168
 20
-721.0280113294
 10
765.078378671
 20
-723.8510739419
 10
760.8925413174
 20
-726.3706028271
 10
756.5313808369
 20
-728.582177875
 10
752.002548187
 20
-730.4819192317
 10
747.313988479
 20
-732.0664941051
 10
742.4739270398
 20
-733.3331226126
 10
737.490854982
 20
-734.2795826573
 10
732.3735143071
 20
-734.9042138267
 10
727.1308825695
 20
-735.2059203055
 10
721.7721571268
 20
-735.1841727979
 10
716.3067390044
 20
-734.8390094566
 10
710.7442164027
 20
-734.1710358153
 10
705.0943478765
 20
-733.1814237267
 10
699.3670452152
 20
-731.8719093068
 10
693.5723560537
 20
-730.2447898887
 10
687.7204462459
 20
-728.3029199929
 10
681.82158203
 20
-726.0497063189
 10
675.8861120183
 20
-723.4891017694
 10
669.9244490422
 20
-720.6255985146
 10
663.9470518842
 20
-717.4642201123
 10
657.9644069302
 20
-714.0105126946
 10
651.9870097722
 20
-710.2705352377
 10
646.0253467961
 20
-706.2508489331
 10
640.0898767844
 20
-701.9585056763
 10
634.1910125685
 20
-697.401035696
 10
628.3391027607
 20
-692.5864343433
 10
622.5444135992
 20
-687.5231480647
 10
616.8171109379
 20
-682.2200595852
 10
611.1672424118
 20
-676.6864723237
 10
605.6047198101
 20
-670.9320940727
 10
600.1393016876
 20
-664.967019967
 10
594.7805762449
 20
-658.8017147735
 10
589.5379445074
 20
-652.4469945326
 10
584.4206038324
 20
-645.9140075828
 10
579.4375317746
 20
-639.2142150032
 10
574.5974703355
 20
-632.3593705067
 10
569.9089106275
 20
-625.3614998196
 10
565.3800779775
 20
-618.2328795852
 10
561.018917497
 20
-610.9860158256
 10
556.8330801434
 20
-603.6336220023
 10
552.8299092977
 20
-596.1885967126
 10
549.0164278818
 20
-588.6640010605
 10
545.399326038
 20
-581.0730357437
 10
541.9849493921
 20
-573.4290178949
 10
538.7792879209
 20
-565.7453577187
 10
535.7879654439
 20
-558.0355349661
 10
533.0162297571
 20
-550.313075286
 10
530.4689434269
 20
-542.5915264967
 10
528.150575259
 20
-534.8844348187
 10
526.065192459
 20
-527.2053211097
 10
524.2164534969
 20
-519.5676571443
 10
522.607601689
 20
-511.9848419807
 10
521.2414595082
 20
-504.4701784531
 10
520.120423632
 20
-497.036849835
 10
519.2464607383
 20
-489.6978967106
 10
518.621104055
 20
-482.4661940974
 10
518.2454506702
 20
-475.3544288593
 10
518.1201596075
 20
-468.3750774489
  0
SPLINE
  5
101
330
1F
100
AcDbEntity
  8
0
  6
Continuous
 62
     7
370
    25
100
AcDbSpline
210
0.0
220
0.0
230
1.0
 70
     8
 71
     3
 72
    12
 73
     8
 74
     0
 42
0.00000001
 43
0.00000001
 40
0.0
 40
0.0
 40
0.0
 40
0.0
 40
0.2146664488072819
 40
0.4293335027067922
 40
0.6439773160934935
 40
0.85859990777911
 40
1.0
 40
1.0
 40
1.0
 40
1.0
 10
669.445132402147
 20
-384.9953282274894
 30
0.0
 10
668.6583866434598
 20
-384.9458913123548
 30
0.0
 10
667.0848929084417
 20
-384.8470173427349
 30
0.0
 10
664.9825265217329
 20
-384.140268066725
 30
0.0
 10
663.4135885220207
 20
-383.1170439711366
 30
0.0
 10
662.523397135717
 20
-381.9960474832264
 30
0.0
 10
662.528324723191
 20
-381.2480456012687
 30
0.0
 10
662.530281793217
 20
-380.9509647132487
 30
0.0
  0
SPLINE
  5
102
330
1F
100
AcDbEntity
  8
0
  6
Continuous
 62
     7
370
    25
100
AcDbSpline
210
0.0
220
0.0
230
1.0
 70
     8
 71
     3
 72
    13
 73
     9
 74
     0
 42
0.00000001
 43
0.00000001
 40
0.0
 40
0.0
 40
0.0
 40
0.0
 40
0.0056767908006019
 40
0.2204939985414397
 40
0.4354006395786032
 40
0.6501957136226163
 40
0.8648574140013842
 40
1.0
 40
1.0
 40
1.0
 40
1.0
 10
676.4308612401328
 20
-380.8404951596168
 30
0.0
 10
676.434231774202
 20
-380.8526998018858
 30
0.0
 10
676.5651477371487
 20
-381.3267441112824
 30
0.0
 10
676.0932447744898
 20
-382.2971112932535
 30
0.0
 10
674.9866574287198
 20
-383.5412526198312
 30
0.0
 10
673.1637168409301
 20
-384.4704738484305
 30
0.0
 10
671.2172059621064
 20
-384.9391777382949
 30
0.0
 10
669.9389650611749
 20
-384.9796804880213
 30
0.0
 10
669.445132402147
 20
-384.9953282274894
 30
0.0
  0
LWPOLYLINE
  5
103
330
1F
100
AcDbEntity
  8
0
  6
Continuous
 62
     7
370
    25
100
AcDbPolyline
 90
      142
 70
   128
 43
0.0
 10
534.9493009998
 20
-478.0903339796
 10
535.0743880497
 20
-471.6806409702
 10
535.4494008508
 20
-465.4280962467
 10
536.0735948498
 20
-459.3451136579
 10
536.9457307673
 20
-453.4437704027
 10
538.0640770583
 20
-447.7357830518
 10
539.4264133495
 20
-442.2324842858
 10
541.0300348486
 20
-436.9448003949
 10
542.8717577133
 20
-431.8832295861
 10
544.9479253734
 20
-427.0578211397
 10
547.2544157903
 20
-422.4781554575
 10
549.7866496406
 20
-418.1533250418
 10
552.5395994085
 20
-414.091916443
 10
555.5077993671
 20
-410.3019932121
 10
558.68535643
 20
-406.7910798907
 10
562.0659618519
 20
-403.5661470722
 10
565.6429037536
 20
-400.6335975624
 10
569.409080448
 20
-397.9992536667
 10
573.35701454
 20
-395.6683456311
 10
577.4788677719
 20
-393.6455012579
 10
581.7664565855
 20
-391.9347367171
 10
586.2112683702
 20
-390.5394485735
 10
590.8044783637
 20
-389.4624070426
 10
595.5369671725
 20
-388.7057504905
 10
600.3993388784
 20
-388.2709811889
 10
605.3819396922
 20
-388.158962332
 10
610.4748771214
 20
-388.3699163227
 10
615.6680396101
 20
-388.9034243315
 10
620.9511166148
 20
-389.7584271277
 10
626.3136190753
 20
-390.9332271822
 10
631.7449002391
 20
-392.4254920385
 10
637.2341768004
 20
-394.2322589426
 10
642.7705503087
 20
-396.3499407262
 10
648.3430288067
 20
-398.7743329281
 10
653.9405486543
 20
-401.500622142
 10
659.5519964939
 20
-404.523395573
 10
665.1662313153
 20
-407.8366517843
 10
670.7721065749
 20
-411.4338126124
 10
676.3584923262
 20
-415.3077362273
 10
681.9142973175
 20
-419.4507313125
 10
687.4284910123
 20
-423.8545723345
 10
692.8901254894
 20
-428.5105158747
 10
698.288357179
 20
-433.4093179882
 10
703.6124683918
 20
-438.5412525568
 10
708.8518885979
 20
-443.8961305995
 10
713.9962154133
 20
-449.4633205016
 10
719.0352352535
 20
-455.2317691229
 10
723.9589436109
 20
-461.1900237425
 10
728.7575649184
 20
-467.3262547975
 10
733.4215719575
 20
-473.6282793691
 10
737.941704774
 20
-480.0835853709
 10
742.3089890625
 20
-486.6793563903
 10
746.5147539844
 20
-493.4024971344
 10
750.5506493828
 20
-500.2396594298
 10
754.4086623608
 20
-507.1772687234
 10
758.0811331908
 20
-514.2015510343
 10
761.560770522
 20
-521.2985603001
 10
764.8406658565
 20
-528.4542060658
 10
767.9143072658
 20
-535.6542814591
 10
770.7755923192
 20
-542.8844913968
 10
773.4188402003
 20
-550.1304809664
 10
775.8388029849
 20
-557.3778639262
 10
778.0306760611
 20
-564.6122512683
 10
779.9901076676
 20
-571.8192797862
 10
781.7132075345
 20
-578.9846405919
 10
783.1965546064
 20
-586.0941075248
 10
784.4372038349
 20
-593.1335653964
 10
785.432692026
 20
-600.0890380147
 10
786.18104273
 20
-606.9467159326
 10
786.6807701658
 20
-613.6929838654
 10
786.9308821708
 20
-620.3144477225
 10
786.9308821708
 20
-626.7979612005
 10
786.6807701658
 20
-633.1306518834
 10
786.18104273
 20
-639.2999468001
 10
785.432692026
 20
-645.2935973865
 10
784.4372038349
 20
-651.0997038043
 10
783.1965546064
 20
-656.7067385665
 10
781.7132075345
 20
-662.1035694247
 10
779.9901076676
 20
-667.2794814708
 10
778.0306760611
 20
-672.2241984104
 10
775.8388029849
 20
-676.9279029659
 10
773.4188402003
 20
-681.3812563671
 10
770.7755923192
 20
-685.5754168933
 10
767.9143072658
 20
-689.5020574267
 10
764.8406658565
 20
-693.1533819862
 10
761.560770522
 20
-696.5221412049
 10
758.0811331908
 20
-699.601646723
 10
754.4086623608
 20
-702.3857844675
 10
750.5506493828
 20
-704.8690267906
 10
746.5147539844
 20
-707.0464434445
 10
742.3089890625
 20
-708.91371137
 10
737.941704774
 20
-710.4671232794
 10
733.4215719575
 20
-711.7035950173
 10
728.7575649184
 20
-712.6206716834
 10
723.9589436109
 20
-713.2165325069
 10
719.0352352535
 20
-713.4899944613
 10
713.9962154133
 20
-713.4405146132
 10
708.8518885979
 20
-713.0681912002
 10
703.6124683918
 20
-712.3737634361
 10
698.288357179
 20
-711.3586100428
 10
692.8901254893
 20
-710.0247465135
 10
687.4284910123
 20
-708.3748211107
 10
681.9142973175
 20
-706.4121096087
 10
676.3584923262
 20
-704.1405087893
 10
670.7721065748
 20
-701.5645287058
 10
665.1662313153
 20
-698.6892837282
 10
659.5519964939
 20
-695.5204823892
 10
653.9405486543
 20
-692.0644160506
 10
648.3430288067
 20
-688.3279464122
 10
642.7705503087
 20
-684.3184918885
 10
637.2341768004
 20
-680.0440128805
 10
631.7449002391
 20
-675.5129959704
 10
626.3136190753
 20
-670.7344370731
 10
620.9511166148
 20
-665.7178235748
 10
615.6680396101
 20
-660.4731154973
 10
610.4748771214
 20
-655.010725723
 10
605.3819396922
 20
-649.3414993211
 10
600.3993388784
 20
-643.476692016
 10
595.5369671725
 20
-637.4279478396
 10
590.8044783637
 20
-631.2072760137
 10
586.2112683702
 20
-624.8270271063
 10
581.7664565855
 20
-618.299868511
 10
577.4788677719
 20
-611.6387592971
 10
573.35701454
 20
-604.8569244803
 10
569.409080448
 20
-597.9678287659
 10
565.6429037536
 20
-590.9851498157
 10
562.0659618519
 20
-583.9227510924
 10
558.68535643
 20
-576.7946543351
 10
555.5077993671
 20
-569.6150117199
 10
552.5395994085
 20
-562.3980777628
 10
549.7866496406
 20
-555.158181018
 10
547.2544157903
 20
-547.9096956304
 10
544.9479253734
 20
-540.6670127969
 10
542.8717577133
 20
-533.4445121936
 10
541.0300348486
 20
-526.2565334271
 10
539.4264133495
 20
-519.1173475638
 10
538.0640770583
 20
-512.0411287964
 10
536.9457307673
 20
-505.0419263023
 10
536.0735948498
 20
-498.1336363501
 10
535.4494008508
 20
-491.3299747101
 10
535.0743880497
 20
-484.6444494228
 10
534.9493009998
 20
-478.0903339796
  0
LWPOLYLINE
  5
104
330
1F
100
AcDbEntity
  8
0
  6
Continuous
 62
     7
370
    25
100
AcDbPolyline
 90
       17
 70
   128
 43
0.0
 10
759.0806202846
 20
-260.9571657017
 10
763.3699767098
 20
-258.7852799558
 10
767.8988093597
 20
-256.8855385992
 10
772.5873690677
 20
-255.3009637258
 10
777.4274305068
 20
-254.0343352183
 10
782.4105025647
 20
-253.0878751736
 10
787.5278432396
 20
-252.4632440042
 10
792.7704749772
 20
-252.1615375254
 10
798.1292004198
 20
-252.1832850329
 10
803.5946185423
 20
-252.5284483743
 10
809.157141144
 20
-253.1964220156
 10
814.8070096701
 20
-254.1860341042
 10
820.5343123314
 20
-255.4955485241
 10
826.3290014929
 20
-257.1226679422
 10
832.1809113008
 20
-259.064537838
 10
838.0797755167
 20
-261.3177515119
 10
843.7190660468
 20
-263.7436833051
  0
LWPOLYLINE
  5
105
330
1F
100
AcDbEntity
  8
0
  6
Continuous
 62
     7
370
    25
100
AcDbPolyline
 90
       58
 70
   128
 43
0.0
 10
857.4603467652
 20
-270.7454001597
 10
861.9369506165
 20
-273.3569451363
 10
867.9143477744
 20
-277.0969225931
 10
873.8760107506
 20
-281.1166088978
 10
879.8114807622
 20
-285.4089521546
 10
885.7103449781
 20
-289.9664221348
 10
891.562254786
 20
-294.7810234876
 10
897.3569439475
 20
-299.8443097661
 10
903.0842466088
 20
-305.1473982457
 10
908.7341151349
 20
-310.6809855072
 10
914.2966377366
 20
-316.4353637582
 10
919.7620558591
 20
-322.4004378639
 10
925.1207813017
 20
-328.5657430573
 10
930.3634130393
 20
-334.9204632983
 10
935.4807537142
 20
-341.4534502481
 10
940.4638257721
 20
-348.1532428276
 10
945.3038872112
 20
-355.0080873242
 10
949.9924469192
 20
-362.0059580112
 10
954.5212795691
 20
-369.1345782457
 10
958.8824400496
 20
-376.3814420053
 10
963.0682774033
 20
-383.7338358285
 10
967.071448249
 20
-391.1788611183
 10
970.8849296649
 20
-398.7034567704
 10
974.5020315086
 20
-406.2944220872
 10
977.9164081545
 20
-413.938439936
 10
981.1220696258
 20
-421.6221001121
 10
984.1133921028
 20
-429.3319228647
 10
986.8851277895
 20
-437.0543825449
 10
989.4324141197
 20
-444.7759313341
 10
991.7507822876
 20
-452.4830230121
 10
993.8361650877
 20
-460.1621367212
 10
995.6849040498
 20
-467.7998006865
 10
997.2937558576
 20
-475.3826158502
 10
998.6598980385
 20
-482.8972793777
 10
999.7809339146
 20
-490.3306079958
 10
1000.6548968083
 20
-497.6695611203
 10
1001.2802534917
 20
-504.9012637334
 10
1001.6559068765
 20
-512.0130289716
 10
1001.7811979391
 20
-518.9923803819
 10
1001.6559068765
 20
-525.8270738105
 10
1001.2802534917
 20
-532.5051188825
 10
1000.6548968083
 20
-539.0148000378
 10
999.7809339146
 20
-545.3446970835
 10
998.6598980385
 20
-551.4837052294
 10
997.2937558576
 20
-557.421054569
 10
995.6849040498
 20
-563.1463289742
 10
993.8361650877
 20
-568.6494843681
 10
991.7507822876
 20
-573.9208663463
 10
989.4324141197
 20
-578.9512271135
 10
986.8851277895
 20
-583.7317417075
 10
984.1133921028
 20
-588.2540234815
 10
981.1220696258
 20
-592.5101388163
 10
977.9164081545
 20
-596.4926210396
 10
974.5020315086
 20
-600.1944835242
 10
970.8849296649
 20
-603.6092319454
 10
967.071448249
 20
-606.7308756742
 10
963.0682774033
 20
-609.5539382868
 10
961.0512701428
 20
-610.8196789756
  0
SPLINE
  5
106
330
1F
100
AcDbEntity
  8
0
  6
Continuous
 62
     7
370
    25
100
AcDbSpline
210
0.0
220
0.0
230
1.0
 70
     8
 71
     3
 72
    12
 73
     8
 74
     0
 42
0.00000001
 43
0.00000001
 40
0.0
 40
0.0
 40
0.0
 40
0.0
 40
0.2441984350686631
 40
0.4884035051520281
 40
0.7324692051190954
 40
0.9765952786026991
 40
1.0
 40
1.0
 40
1.0
 40
1.0
 10
849.138801483249
 20
-280.2797971683593
 30
0.0
 10
848.3821106272385
 20
-280.1367095587596
 30
0.0
 10
846.8687083554831
 20
-279.8505304517856
 30
0.0
 10
845.0225271633909
 20
-278.9304263956055
 30
0.0
 10
843.8589881087502
 20
-277.7773204820024
 30
0.0
 10
843.35563875597
 20
-276.8541009557129
 30
0.0
 10
843.4834147521714
 20
-276.3831149606457
 30
0.0
 10
843.4945931348084
 20
-276.3419111209102
 30
0.0
  0
SPLINE
  5
107
330
1F
100
AcDbEntity
  8
0
  6
Continuous
 62
     7
370
    25
100
AcDbSpline
210
0.0
220
0.0
230
1.0
 70
     8
 71
     3
 72
    13
 73
     9
 74
     0
 42
0.00000001
 43
0.00000001
 40
0.0
 40
0.0
 40
0.0
 40
0.0
 40
0.1132181524630589
 40
0.3047058780715243
 40
0.4961254536621745
 40
0.6875327326357237
 40
0.8790514967951589
 40
1.0
 40
1.0
 40
1.0
 40
1.0
 10
857.3643212798384
 20
-276.4514700399137
 30
0.0
 10
857.375041648726
 20
-276.7233455092064
 30
0.0
 10
857.4038935540443
 20
-277.4550484366501
 30
0.0
 10
856.5695786278832
 20
-278.5676362666665
 30
0.0
 10
855.0445382496057
 20
-279.5997881820929
 30
0.0
 10
852.9717654797607
 20
-280.2474575565259
 30
0.0
 10
850.9033897205125
 20
-280.4461243946169
 30
0.0
 10
849.6312254340195
 20
-280.3262122515753
 30
0.0
 10
849.138801483249
 20
-280.2797971683593
 30
0.0
  0
LWPOLYLINE
  5
108
330
1F
100
AcDbEntity
  8
0
  6
Continuous
 62
     7
370
    25
100
AcDbPolyline
 90
       29
 70
   128
 43
0.0
 10
674.3907582498
 20
-366.4749728861
 10
675.3680801761
 20
-367.182452216
 10
676.0481940936
 20
-367.9977389693
 10
676.3969962507
 20
-368.8799512637
 10
676.3969962507
 20
-369.7848512911
 10
676.0481940936
 20
-370.6670635856
 10
675.3680801761
 20
-371.4823503389
 10
674.3907582498
 20
-372.1898296688
 10
673.1652353171
 20
-372.7540256076
 10
671.7529642151
 20
-373.146647015
 10
670.2247621142
 20
-373.3480062143
 10
668.6572594487
 20
-373.3480062143
 10
667.1290573478
 20
-373.146647015
 10
665.7167862458
 20
-372.7540256076
 10
664.4912633131
 20
-372.1898296688
 10
663.5139413869
 20
-371.4823503389
 10
662.8338274693
 20
-370.6670635856
 10
662.4850253122
 20
-369.7848512911
 10
662.4850253122
 20
-368.8799512637
 10
662.8338274693
 20
-367.9977389693
 10
663.5139413869
 20
-367.182452216
 10
664.4912633131
 20
-366.4749728861
 10
665.7167862458
 20
-365.9107769473
 10
667.1290573478
 20
-365.5181555398
 10
668.6572594487
 20
-365.3167963406
 10
670.2247621142
 20
-365.3167963406
 10
671.7529642151
 20
-365.5181555398
 10
673.1652353171
 20
-365.9107769473
 10
674.3907582498
 20
-366.4749728861
  0
LWPOLYLINE
  5
109
330
1F
100
AcDbEntity
  8
0
  6
Continuous
 62
     7
370
    25
100
AcDbPolyline
 90
       24
 70
   128
 43
0.0
 10
672.9765446874
 20
-367.2913809979
 10
673.7993131316
 20
-367.9177282477
 10
674.2988462284
 20
-368.6489953245
 10
674.4380958933
 20
-369.4309474944
 10
674.2067346155
 20
-370.2055909422
 10
673.6219214027
 20
-370.9154739071
 10
672.7270291755
 20
-371.5079476172
 10
671.5884279966
 20
-371.9390710078
 10
670.2905627066
 20
-372.1768696291
 10
668.9296900367
 20
-372.2037070454
 10
667.6067396874
 20
-372.0175928482
 10
666.4198288338
 20
-371.6323302762
 10
665.4569852244
 20
-371.0764924918
 10
664.7896185648
 20
-370.3913034407
 10
664.4672243872
 20
-369.6275804603
 10
664.5137131929
 20
-368.8419653903
 10
664.9256371198
 20
-368.0927237064
 10
665.6724456548
 20
-367.4354232368
 10
666.6987514252
 20
-366.9188129504
 10
667.928438027
 20
-366.5812074688
 10
669.2703052305
 20
-366.4476454461
 10
670.6248328838
 20
-366.5280325666
 10
671.8915618673
 20
-366.8164068851
 10
672.9765446874
 20
-367.2913809979
  0
LWPOLYLINE
  5
10A
330
1F
100
AcDbEntity
  8
0
  6
Continuous
 62
     7
370
    25
100
AcDbPolyline
 90
       29
 70
   128
 43
0.0
 10
845.5105992969
 20
-267.6895913555
 10
844.5332773706
 20
-266.9821120256
 10
843.8531634531
 20
-266.1668252723
 10
843.504361296
 20
-265.2846129778
 10
843.504361296
 20
-264.3797129504
 10
843.8531634531
 20
-263.4975006559
 10
844.5332773706
 20
-262.6822139027
 10
845.5105992969
 20
-261.9747345728
 10
846.7361222296
 20
-261.410538634
 10
848.1483933315
 20
-261.0179172265
 10
849.6765954325
 20
-260.8165580273
 10
851.2440980979
 20
-260.8165580273
 10
852.7723001989
 20
-261.0179172265
 10
854.1845713008
 20
-261.410538634
 10
855.4100942335
 20
-261.9747345728
 10
856.3874161598
 20
-262.6822139027
 10
857.0675300774
 20
-263.4975006559
 10
857.4163322345
 20
-264.3797129504
 10
857.4163322345
 20
-265.2846129778
 10
857.0675300774
 20
-266.1668252723
 10
856.3874161598
 20
-266.9821120256
 10
855.4100942335
 20
-267.6895913555
 10
854.1845713008
 20
-268.2537872943
 10
852.7723001989
 20
-268.6464087017
 10
851.2440980979
 20
-268.847767901
 10
849.6765954325
 20
-268.847767901
 10
848.1483933315
 20
-268.6464087017
 10
846.7361222296
 20
-268.2537872943
 10
845.5105992969
 20
-267.6895913555
  0
LWPOLYLINE
  5
10B
330
1F
100
AcDbEntity
  8
0
  6
Continuous
 62
     7
370
    25
100
AcDbPolyline
 90
       24
 70
   128
 43
0.0
 10
846.9248128593
 20
-266.8731832437
 10
846.102044415
 20
-266.2468359939
 10
845.6025113182
 20
-265.5155689171
 10
845.4632616534
 20
-264.7336167472
 10
845.6946229311
 20
-263.9589732994
 10
846.2794361439
 20
-263.2490903344
 10
847.1743283711
 20
-262.6566166243
 10
848.3129295501
 20
-262.2254932338
 10
849.6107948401
 20
-261.9876946125
 10
850.9716675099
 20
-261.9608571962
 10
852.2946178593
 20
-262.1469713933
 10
853.4815287128
 20
-262.5322339654
 10
854.4443723223
 20
-263.0880717498
 10
855.1117389819
 20
-263.7732608009
 10
855.4341331595
 20
-264.5369837813
 10
855.3876443538
 20
-265.3225988513
 10
854.9757204268
 20
-266.0718405352
 10
854.2289118918
 20
-266.7291410047
 10
853.2026061215
 20
-267.2457512911
 10
851.9729195196
 20
-267.5833567727
 10
850.6310523161
 20
-267.7169187954
 10
849.2765246629
 20
-267.636531675
 10
848.0097956793
 20
-267.3481573564
 10
846.9248128593
 20
-266.8731832437
  0
LWPOLYLINE
  5
10C
330
1F
100
AcDbEntity
  8
0
  6
Continuous
 62
     1
370
    25
100
AcDbPolyline
 90
       78
 70
   128
 43
0.0
 10
649.6200390919
 20
-322.9783914671
 10
650.1411478003
 20
-322.680634164
 10
654.4726981804
 20
-320.4328968964
 10
658.9715486839
 20
-318.4939221151
 10
663.6299109737
 20
-316.8670665417
 10
668.4397205684
 20
-315.5551465623
 10
673.3926508037
 20
-314.5604333514
 10
678.4801272469
 20
-313.8846489405
 10
683.6933425412
 20
-313.5289632366
 10
689.023271653
 20
-313.4939919969
 10
694.4606874951
 20
-313.7797957632
 10
699.9961769014
 20
-314.3858797566
 10
705.6201569224
 20
-315.3111947343
 10
711.3228914149
 20
-316.5541388061
 10
717.0945078975
 20
-318.1125602072
 10
722.9250146411
 20
-319.9837610238
 10
728.804317967
 20
-322.1645018633
 10
734.7222397205
 20
-324.6510074626
 10
740.6685348914
 20
-327.4389732235
 10
746.6329093499
 20
-330.5235726648
 10
752.6050376674
 20
-333.8994657779
 10
758.5745809923
 20
-337.5608082714
 10
764.5312049478
 20
-341.5012616885
 10
770.4645975231
 20
-345.71400438
 10
776.3644869251
 20
-350.1917433141
 10
782.2206593609
 20
-354.9267267017
 10
788.0229767196
 20
-359.9107574163
 10
793.7613941234
 20
-365.1352071847
 10
799.4259773172
 20
-370.591031524
 10
805.0069198662
 20
-376.2687853997
 10
810.4945601332
 20
-382.1586395761
 10
815.8793980042
 20
-388.2503976332
 10
821.1521113352
 20
-394.533513618
 10
826.3035720903
 20
-400.9971103022
 10
831.3248621441
 20
-407.6299980117
 10
836.2072887207
 20
-414.4206939989
 10
840.9423994422
 20
-421.3574423209
 10
845.5219969617
 20
-428.4282341914
 10
849.9381531542
 20
-435.62082877
 10
854.1832228416
 20
-442.9227743537
 10
858.2498570281
 20
-450.3214299325
 10
862.1310156225
 20
-457.8039870738
 10
865.8199796259
 20
-465.3574920959
 10
869.3103627635
 20
-472.9688684933
 10
872.5961225407
 20
-480.6249395744
 10
875.6715707034
 20
-488.3124512732
 10
878.5313830855
 20
-496.0180950939
 10
881.1706088263
 20
-503.7285311507
 10
883.5846789407
 20
-511.4304112618
 10
885.7694142299
 20
-519.1104020571
 10
887.7210325154
 20
-526.7552080609
 10
889.4361551873
 20
-534.351594709
 10
890.911813053
 20
-541.8864112598
 10
892.1454514775
 20
-549.3466135612
 10
893.1349348061
 20
-556.7192866316
 10
893.8785500611
 20
-563.991667019
 10
894.3750099079
 20
-571.1511648963
 10
894.6234548833
 20
-578.1853858568
 10
894.6234548832
 20
-585.0821523711
 10
894.3750099079
 20
-591.8295248687
 10
893.8785500611
 20
-598.4158224078
 10
893.1349348061
 20
-604.8296428967
 10
892.1454514775
 20
-611.0598828334
 10
890.911813053
 20
-617.0957565275
 10
889.4361551873
 20
-622.9268147721
 10
887.7210325154
 20
-628.5429629338
 10
885.7694142299
 20
-633.9344784278
 10
883.5846789407
 20
-639.0920275498
 10
881.1706088263
 20
-644.0066816345
 10
878.5313830855
 20
-648.6699325123
 10
875.6715707034
 20
-653.0737072389
 10
872.5961225407
 20
-657.2103820707
 10
869.3103627635
 20
-661.0727956634
 10
865.8199796259
 20
-664.6542614691
 10
862.1310156225
 20
-667.9485793122
 10
858.2498570281
 20
-670.9500461231
 10
854.1832228416
 20
-673.6534658111
 10
852.6037041416
 20
-674.5941358856
  0
LWPOLYLINE
  5
10D
330
1F
100
AcDbEntity
  8
0
  6
Continuous
 62
     1
370
    25
100
AcDbPolyline
 90
       78
 70
   128
 43
0.0
 10
667.2977621756
 20
-312.7732591533
 10
667.8188173299
 20
-312.4755327662
 10
672.1503677101
 20
-310.2277954987
 10
676.6492182136
 20
-308.2888207173
 10
681.3075805033
 20
-306.6619651439
 10
686.1173900981
 20
-305.3500451645
 10
691.0703203333
 20
-304.3553319536
 10
696.1577967765
 20
-303.6795475427
 10
701.3710120709
 20
-303.3238618388
 10
706.7009411826
 20
-303.2888905991
 10
712.1383570247
 20
-303.5746943654
 10
717.6738464311
 20
-304.1807783588
 10
723.2978264521
 20
-305.1060933365
 10
729.0005609446
 20
-306.3490374083
 10
734.7721774271
 20
-307.9074588094
 10
740.6026841708
 20
-309.778659626
 10
746.4819874967
 20
-311.9594004655
 10
752.3999092502
 20
-314.4459060649
 10
758.3462044211
 20
-317.2338718257
 10
764.3105788795
 20
-320.318471267
 10
770.2827071971
 20
-323.6943643801
 10
776.2522505219
 20
-327.3557068736
 10
782.2088744775
 20
-331.2961602907
 10
788.1422670528
 20
-335.5089029822
 10
794.0421564548
 20
-339.9866419163
 10
799.8983288905
 20
-344.721625304
 10
805.7006462492
 20
-349.7056560186
 10
811.4390636531
 20
-354.9301057869
 10
817.1036468468
 20
-360.3859301263
 10
822.6845893958
 20
-366.0636840019
 10
828.1722296628
 20
-371.9535381783
 10
833.5570675339
 20
-378.0452962354
 10
838.8297808649
 20
-384.3284122203
 10
843.98124162
 20
-390.7920089044
 10
849.0025316738
 20
-397.4248966139
 10
853.8849582504
 20
-404.2155926011
 10
858.6200689719
 20
-411.1523409231
 10
863.1996664914
 20
-418.2231327936
 10
867.6158226839
 20
-425.4157273723
 10
871.8608923713
 20
-432.7176729559
 10
875.9275265578
 20
-440.1163285348
 10
879.8086851522
 20
-447.598885676
 10
883.4976491555
 20
-455.1523906981
 10
886.9880322932
 20
-462.7637670955
 10
890.2737920704
 20
-470.4198381766
 10
893.3492402331
 20
-478.1073498754
 10
896.2090526152
 20
-485.8129936961
 10
898.8482783559
 20
-493.523429753
 10
901.2623484704
 20
-501.225309864
 10
903.4470837595
 20
-508.9053006593
 10
905.398702045
 20
-516.5501066631
 10
907.1138247169
 20
-524.1464933112
 10
908.5894825827
 20
-531.681309862
 10
909.8231210072
 20
-539.1415121634
 10
910.8126043357
 20
-546.5141852338
 10
911.5562195907
 20
-553.7865656212
 10
912.0526794376
 20
-560.9460634985
 10
912.3011244129
 20
-567.980284459
 10
912.3011244129
 20
-574.8770509733
 10
912.0526794376
 20
-581.6244234709
 10
911.5562195907
 20
-588.21072101
 10
910.8126043357
 20
-594.624541499
 10
909.8231210072
 20
-600.8547814357
 10
908.5894825827
 20
-606.8906551297
 10
907.1138247169
 20
-612.7217133743
 10
905.398702045
 20
-618.337861536
 10
903.4470837595
 20
-623.72937703
 10
901.2623484704
 20
-628.8869261521
 10
898.8482783559
 20
-633.8015802368
 10
896.2090526152
 20
-638.4648311146
 10
893.3492402331
 20
-642.8686058411
 10
890.2737920704
 20
-647.0052806729
 10
886.9880322932
 20
-650.8676942656
 10
883.4976491555
 20
-654.4491600713
 10
879.8086851522
 20
-657.7434779144
 10
875.9275265578
 20
-660.7449447253
 10
871.8608923713
 20
-663.4483644133
 10
870.2812649007
 20
-664.3890972798
  0
ENDSEC
  0
SECTION
  2
OBJECTS
  0
DICTIONARY
  5
C
330
0
100
AcDbDictionary
281
     1
  3
ACAD_GROUP
350
D
  3
ACAD_LAYOUT
350
1A
  3
ACAD_MLINESTYLE
350
17
  3
ACAD_PLOTSETTINGS
350
19
  3
ACAD_PLOTSTYLENAME
350
E
  3
ACAD_SCALELIST
350
47
  3
DWGPROPS
350
10E
  0
DICTIONARY
  5
D
102
{ACAD_REACTORS
330
C
102
}
330
C
100
AcDbDictionary
281
     1
  0
DICTIONARY
  5
1A
102
{ACAD_REACTORS
330
C
102
}
330
C
100
AcDbDictionary
281
     1
  3
Layout1
350
1E
  3
Layout2
350
26
  3
Model
350
22
  0
DICTIONARY
  5
17
102
{ACAD_REACTORS
330
C
102
}
330
C
100
AcDbDictionary
281
     1
  3
Standard
350
18
  0
DICTIONARY
  5
19
102
{ACAD_REACTORS
330
C
102
}
330
C
100
AcDbDictionary
281
     1
  0
ACDBDICTIONARYWDFLT
  5
E
102
{ACAD_REACTORS
330
C
102
}
330
C
100
AcDbDictionary
281
     1
  3
Normal
350
F
100
AcDbDictionaryWithDefault
340
F
  0
DICTIONARY
  5
47
102
{ACAD_REACTORS
330
C
102
}
330
C
100
AcDbDictionary
281
     1
  3
A0
350
48
  3
A1
350
49
  3
A2
350
4A
  3
A3
350
4B
  3
A4
350
4C
  3
A5
350
4D
  3
A6
350
4E
  3
A7
350
4F
  3
A8
350
50
  3
A9
350
51
  3
B0
350
52
  3
B1
350
53
  3
B2
350
54
  3
B3
350
55
  3
B4
350
56
  3
B5
350
57
  3
B6
350
58
  3
B7
350
59
  3
B8
350
5A
  3
B9
350
5B
  3
C0
350
5C
  3
C1
350
5D
  3
C2
350
5E
  3
C3
350
5F
  3
C4
350
60
  3
C5
350
61
  3
C6
350
62
  3
C7
350
63
  3
C8
350
64
  3
C9
350
65
  3
D0
350
66
  3
D1
350
67
  3
D2
350
68
  0
XRECORD
  5
10E
102
{ACAD_REACTORS
330
C
102
}
330
C
100
AcDbXrecord
280
     1
  1
DWGPROPS COOKIE
  2

  3

  4

  6

  7

  8
b.kav
  9

300
=
301
=
302
=
303
=
304
=
305
=
306
=
307
=
308
=
309
=
 40
0.0
 41
2460616.541931019
 42
2460616.541931204
  1

 90
        0
  0
LAYOUT
  5
1E
102
{ACAD_REACTORS
330
1A
102
}
330
1A
100
AcDbPlotSettings
  1

  2
none_device
  4

  6

 40
0.0
 41
0.0
 42
0.0
 43
0.0
 44
0.0
 45
0.0
 46
0.0
 47
0.0
 48
0.0
 49
0.0
140
0.0
141
0.0
142
1.0
143
1.0
 70
   688
 72
     1
 73
     0
 74
     5
  7

 75
    16
147
1.0
148
0.0
149
0.0
100
AcDbLayout
  1
Layout1
 70
     1
 71
     1
 10
0.0
 20
0.0
 11
420.0
 21
297.0
 12
0.0
 22
0.0
 32
0.0
 14
1.0000000000E+20
 24
1.0000000000E+20
 34
1.0000000000E+20
 15
-1.0000000000E+20
 25
-1.0000000000E+20
 35
-1.0000000000E+20
146
0.0
 13
0.0
 23
0.0
 33
0.0
 16
1.0
 26
0.0
 36
0.0
 17
0.0
 27
1.0
 37
0.0
 76
     0
330
1B
  0
LAYOUT
  5
26
102
{ACAD_REACTORS
330
1A
102
}
330
1A
100
AcDbPlotSettings
  1

  2
none_device
  4

  6

 40
0.0
 41
0.0
 42
0.0
 43
0.0
 44
0.0
 45
0.0
 46
0.0
 47
0.0
 48
0.0
 49
0.0
140
0.0
141
0.0
142
1.0
143
1.0
 70
   688
 72
     1
 73
     0
 74
     5
  7

 75
    16
147
1.0
148
0.0
149
0.0
100
AcDbLayout
  1
Layout2
 70
     1
 71
     2
 10
0.0
 20
0.0
 11
0.0
 21
0.0
 12
0.0
 22
0.0
 32
0.0
 14
0.0
 24
0.0
 34
0.0
 15
0.0
 25
0.0
 35
0.0
146
0.0
 13
0.0
 23
0.0
 33
0.0
 16
1.0
 26
0.0
 36
0.0
 17
0.0
 27
1.0
 37
0.0
 76
     0
330
23
  0
LAYOUT
  5
22
102
{ACAD_REACTORS
330
1A
102
}
330
1A
100
AcDbPlotSettings
  1

  2
none_device
  4
Letter_(8.50_x_11.00_Inches)
  6

 40
6.35
 41
6.35
 42
6.35000508
 43
6.35000508
 44
215.9
 45
279.4
 46
0.0
 47
0.0
 48
0.0
 49
0.0
140
0.0
141
0.0
142
1.0
143
1.0
 70
  1712
 72
     1
 73
     0
 74
     0
  7

 75
     0
147
1.0
148
0.0
149
0.0
100
AcDbLayout
  1
Model
 70
     1
 71
     0
 10
0.0
 20
0.0
 11
279.4
 21
215.9
 12
0.0
 22
0.0
 32
0.0
 14
0.0
 24
0.0
 34
0.0
 15
279.4
 25
215.9
 35
0.0
146
0.0
 13
0.0
 23
0.0
 33
0.0
 16
1.0
 26
0.0
 36
0.0
 17
0.0
 27
1.0
 37
0.0
 76
     0
330
1F
331
29
  0
MLINESTYLE
  5
18
102
{ACAD_REACTORS
330
17
102
}
330
17
100
AcDbMlineStyle
  2
Standard
 70
     0
  3

 62
   256
 51
90.0
 52
90.0
 71
     2
 49
0.5
 62
   256
  6
BYLAYER
 49
-0.5
 62
   256
  6
BYLAYER
  0
ACDBPLACEHOLDER
  5
F
102
{ACAD_REACTORS
330
E
102
}
330
E
  0
SCALE
  5
48
102
{ACAD_REACTORS
330
47
102
}
330
47
100
AcDbScale
 70
     0
300
1:1
140
1.0
141
1.0
290
     1
  0
SCALE
  5
49
102
{ACAD_REACTORS
330
47
102
}
330
47
100
AcDbScale
 70
     0
300
1:2
140
1.0
141
2.0
290
     0
  0
SCALE
  5
4A
102
{ACAD_REACTORS
330
47
102
}
330
47
100
AcDbScale
 70
     0
300
1:4
140
1.0
141
4.0
290
     0
  0
SCALE
  5
4B
102
{ACAD_REACTORS
330
47
102
}
330
47
100
AcDbScale
 70
     0
300
1:5
140
1.0
141
5.0
290
     0
  0
SCALE
  5
4C
102
{ACAD_REACTORS
330
47
102
}
330
47
100
AcDbScale
 70
     0
300
1:8
140
1.0
141
8.0
290
     0
  0
SCALE
  5
4D
102
{ACAD_REACTORS
330
47
102
}
330
47
100
AcDbScale
 70
     0
300
1:10
140
1.0
141
10.0
290
     0
  0
SCALE
  5
4E
102
{ACAD_REACTORS
330
47
102
}
330
47
100
AcDbScale
 70
     0
300
1:16
140
1.0
141
16.0
290
     0
  0
SCALE
  5
4F
102
{ACAD_REACTORS
330
47
102
}
330
47
100
AcDbScale
 70
     0
300
1:20
140
1.0
141
20.0
290
     0
  0
SCALE
  5
50
102
{ACAD_REACTORS
330
47
102
}
330
47
100
AcDbScale
 70
     0
300
1:30
140
1.0
141
30.0
290
     0
  0
SCALE
  5
51
102
{ACAD_REACTORS
330
47
102
}
330
47
100
AcDbScale
 70
     0
300
1:40
140
1.0
141
40.0
290
     0
  0
SCALE
  5
52
102
{ACAD_REACTORS
330
47
102
}
330
47
100
AcDbScale
 70
     0
300
1:50
140
1.0
141
50.0
290
     0
  0
SCALE
  5
53
102
{ACAD_REACTORS
330
47
102
}
330
47
100
AcDbScale
 70
     0
300
1:100
140
1.0
141
100.0
290
     0
  0
SCALE
  5
54
102
{ACAD_REACTORS
330
47
102
}
330
47
100
AcDbScale
 70
     0
300
2:1
140
2.0
141
1.0
290
     0
  0
SCALE
  5
55
102
{ACAD_REACTORS
330
47
102
}
330
47
100
AcDbScale
 70
     0
300
4:1
140
4.0
141
1.0
290
     0
  0
SCALE
  5
56
102
{ACAD_REACTORS
330
47
102
}
330
47
100
AcDbScale
 70
     0
300
8:1
140
8.0
141
1.0
290
     0
  0
SCALE
  5
57
102
{ACAD_REACTORS
330
47
102
}
330
47
100
AcDbScale
 70
     0
300
10:1
140
10.0
141
1.0
290
     0
  0
SCALE
  5
58
102
{ACAD_REACTORS
330
47
102
}
330
47
100
AcDbScale
 70
     0
300
100:1
140
100.0
141
1.0
290
     0
  0
SCALE
  5
59
102
{ACAD_REACTORS
330
47
102
}
330
47
100
AcDbScale
 70
     0
300
1/128" = 1'-0"
140
0.0078125
141
12.0
290
     0
  0
SCALE
  5
5A
102
{ACAD_REACTORS
330
47
102
}
330
47
100
AcDbScale
 70
     0
300
1/64" = 1'-0"
140
0.015625
141
12.0
290
     0
  0
SCALE
  5
5B
102
{ACAD_REACTORS
330
47
102
}
330
47
100
AcDbScale
 70
     0
300
1/32" = 1'-0"
140
0.03125
141
12.0
290
     0
  0
SCALE
  5
5C
102
{ACAD_REACTORS
330
47
102
}
330
47
100
AcDbScale
 70
     0
300
1/16" = 1'-0"
140
0.0625
141
12.0
290
     0
  0
SCALE
  5
5D
102
{ACAD_REACTORS
330
47
102
}
330
47
100
AcDbScale
 70
     0
300
3/32" = 1'-0"
140
0.09375
141
12.0
290
     0
  0
SCALE
  5
5E
102
{ACAD_REACTORS
330
47
102
}
330
47
100
AcDbScale
 70
     0
300
1/8" = 1'-0"
140
0.125
141
12.0
290
     0
  0
SCALE
  5
5F
102
{ACAD_REACTORS
330
47
102
}
330
47
100
AcDbScale
 70
     0
300
3/16" = 1'-0"
140
0.1875
141
12.0
290
     0
  0
SCALE
  5
60
102
{ACAD_REACTORS
330
47
102
}
330
47
100
AcDbScale
 70
     0
300
1/4" = 1'-0"
140
0.25
141
12.0
290
     0
  0
SCALE
  5
61
102
{ACAD_REACTORS
330
47
102
}
330
47
100
AcDbScale
 70
     0
300
3/8" = 1'-0"
140
0.375
141
12.0
290
     0
  0
SCALE
  5
62
102
{ACAD_REACTORS
330
47
102
}
330
47
100
AcDbScale
 70
     0
300
1/2" = 1'-0"
140
0.5
141
12.0
290
     0
  0
SCALE
  5
63
102
{ACAD_REACTORS
330
47
102
}
330
47
100
AcDbScale
 70
     0
300
3/4" = 1'-0"
140
0.75
141
12.0
290
     0
  0
SCALE
  5
64
102
{ACAD_REACTORS
330
47
102
}
330
47
100
AcDbScale
 70
     0
300
1" = 1'-0"
140
1.0
141
12.0
290
     0
  0
SCALE
  5
65
102
{ACAD_REACTORS
330
47
102
}
330
47
100
AcDbScale
 70
     0
300
1-1/2" = 1'-0"
140
1.5
141
12.0
290
     0
  0
SCALE
  5
66
102
{ACAD_REACTORS
330
47
102
}
330
47
100
AcDbScale
 70
     0
300
3" = 1'-0"
140
3.0
141
12.0
290
     0
  0
SCALE
  5
67
102
{ACAD_REACTORS
330
47
102
}
330
47
100
AcDbScale
 70
     0
300
6" = 1'-0"
140
6.0
141
12.0
290
     0
  0
SCALE
  5
68
102
{ACAD_REACTORS
330
47
102
}
330
47
100
AcDbScale
 70
     0
300
1'-0" = 1'-0"
140
12.0
141
12.0
290
     0
  0
ENDSEC
  0
EOF
